Oops, an error
Loading. Please wait.
We have an official Out Of The Black tab made by UG professional guitarists. Check out the tab »
×
116,568 views 594 this week
9 commentsread comments
1 2 3 4 5
x 95
add to favorites
×
Save as Personal and add changes to this tab that will be seen only by you. Learn more ›
×
You can save this tab as Personal to edit and correct it or add notes. All changes will be seen only by you. Learn more »
launch autoscroll
font size
0
reset
guitar tuner
backing track
0:00
0:00
edit
Autoscroll
slow
fast
+/-
esc
set tempo
stop
[INTRO]

G|---------------------------------|   X4 |--------------------|
D|---------------------------------|      |--------------------|
A|---8(x6)---8------8(x6)---8(x4)--| THEN |---8(x4)------------|
D|-0-------0---0--0-------0--------| ADD  |-0------------------|


[VERSE 1]

G|---------------------------------------------------------------|
D|---------------------------------------------------------------|
A|---------------------------------------------------------------| X2
D|-0(x8)-7(x8)-5(x8)-3(x8)---------------------------------------|


[PRE CHORUS]

G|---------------------------------------------------------------|
D|---------------------------------------------------------------|
A|---------------------------------------------------------------|
D|-0(x8)-7(x8)-8(x8)-2(x8)---------------------------------------|


[CHORUS]

G|---------10-10-10-----------10-10-10-----------------------------------|
D|---------12-12-12-----------12-12-12-----------------------------------|
A|----------------------------------------------5-5-5-5---------4-4-4-4--| X4
D|-0-0-0-0-----------0-0-0-0------------3-3-3-3---------2-2-2-2----------|


[POST CHORUS]

G|--------------------------12b14--------------------------------|
D|---------------------------------------------------------------|
A|---------------------------------------------------------------|
D|-0(x8)-7(x8)-8(x8)-2(X4)---------------------------------------|


[VERSE 2]

G|---------------------------------------------------------------|
D|---------------------------------------------------------------|
A|---------------------------------------------------------------| X3
D|-0(x8)-7(x8)-5(x8)-3(x8)---------------------------------------|


[PRE CHORUS]

G|---------------------------------------------------------------|
D|---------------------------------------------------------------|
A|---------------------------------------------------------------|
D|-0(x8)-7(x8)-8(x8)-2(x8)---------------------------------------|


[PRE CHORUS RIFF]

G|---------------------------------------------------------------|
D|-------------3-3-------------5-5-------------------------------|
A|---------5-5-------------4-4-----------------------------------| X2
D|-3-3-3-3---------2-2-2-2---------------------------------------|


[CHORUS]

G|---------10-10-10-----------10-10-10-----------------------------------|
D|---------12-12-12-----------12-12-12-----------------------------------|
A|----------------------------------------------5-5-5-5---------4-4-4-4--| X4
D|-0-0-0-0-----------0-0-0-0------------3-3-3-3---------2-2-2-2----------|


[INTRO RIFF]

(ALMOST THE SAME)
G|---------------------------------|  
D|---------------------------------|
A|---8(x6)---8------8(x6)---8(x4)--| X4 
D|-0-------0---0--0-------0--------|


[PRE CHORUS RIFF II]

G|----------------------------------------------------------14-12-------|
D|-------------3-3-------------5-5-------------3-3----------------15-14-|
A|---------5-5-------------4-4-------------5-5--------------------------|
D|-3-3-3-3---------2-2-2-2---------3-3-3-3---------2-2-2-2--------------|


[LAST CHORUS]

G|---------10-10-10-----------------------------------------------------------|
D|---------12-12-12-----------------------------------------------------------|
A|---------------------------------------------------5-5-5-5---------4-4-4-4--|
D|-0-0-0-0-----------0-0-0-0----12>0---------3-3-3-3---------2-2-2-2----------|


G|---------10-10-10------------12b14p12---------------------------------------|
D|---------12-12-12---------------------12------------------------------------|
A|---------------------------------------------------5-5-5-5---------4-4-4-4--|
D|-0-0-0-0-----------0-0-0-0-----------------3-3-3-3---------2-2-2-2----------|

G|---------10-10-10-----------10-10-10-----------------------------------|
D|---------12-12-12-----------12-12-12-----------------------------------|
A|----------------------------------------------5-5-5-5---------4-4-4-4--|
D|-0-0-0-0-----------0-0-0-0------------3-3-3-3---------2-2-2-2----------|

G|---------10-10-10-----------10-10-10-----------------------------------|
D|---------12-12-12-----------12-12-12-----------------------------------|
A|----------------------------------------------5-5-5-5---------4-4-4-4--|
D|-0-0-0-0-----------0-0-0-0------------3-3-3-3---------2-2-2-2----------|


[BRIDGE]

G|--------------------------------------------------------|
D|--------------------------------------------------------|
A|-1(x8)-------------------1(x8)------5(x8)-3(x8)---------|
D|-------2(x8)-0(x8)-3(x8)-------2(x8)--------------------|

G|--------------------------------------------------------|
D|--------------------------------------------------------|
A|-1(x8)-------------------1(x8)--------------------------|
D|-------2(x8)-0(x8)-3(x8)-------2(x8)--------------------|


[FINAL RIFFAGE]

G|------------------------------------------------------------------------|
D|-------------------------3-3--------------------------------------------|
A|-5-5-------------1-1---------4-4-----5-5-----5-5-----4-4-5-5------------| X4
D|-----3-3>7-7-0-0-----3-3---------5-5-----3-3-----2-2---------0-0--------|


G|----------------------------------------------------------------------|
D|----------------------------------------------------------------------|
A|-----5-5-----5-5-----4-4-5-5-5-5-----5-5-----5-5-----5-5-----5-5------|
D|-5-5-----3-3-----2-2-------------5-5-----3-3-----5-5-----3-3----------|

G|----------------------------------------------------------------------|
D|----------------------------------------------------------------------|
A|------------------------->8-8-8-8b9-----------------------------------|
D|-5-3-5-3-5-3-5-3-5-3-5-3----------------------------------------------|


[END]

G|---------------------------------|  
D|---------------------------------|
A|---8(x6)---8-5>0-----------------|
D|-0-------0-----------------------|

*******************************************

b  Bend
p  Pull off
>  Slide

*******************************************

OFFICIAL BAND WEBSITE
http://royalbloodband.com/

SOUNDCLOUD
https://soundcloud.com/royalbloodband

            
            
Suggest correction
Creating personal tab
Creating personal tab
You can edit any tab online and save it as your Personal.

You can edit, replace or remove any tab part or add personal notes – all changes will be seen only by you.

Personal tabs can be accessed anytime from any device, even offline.
Learn more »
comments
print report bad tab
9 comments total. Showing first comments.
+2 reply
sideslick 60 May 31, 2014 07:43 PM

Seriously, bad-ass band!

+1 reply
Robert2511 321 Aug 25, 2014 09:52 AM

What does > mean, I haven't seen it on any other tabs so far

+1 reply
alex2469hanson 10 Jun 06, 2015 08:18 AM

what does the B mean in 12b14?

guest
You may want to rate the tab now too:
select rating
Wanna post a correction for this tab? Suggest correction