Oops, an error
Loading. Please wait.
We have an official Out Of The Black tab made by UG professional guitarists. Check out the tab »
×
1,633 views 12 this week
no commentswrite comment
1 2 3 4 5
x 3
add to favorites
×
Save as Personal and add changes to this tab that will be seen only by you. Learn more ›
×
You can save this tab as Personal to edit and correct it or add notes. All changes will be seen only by you. Learn more »
launch autoscroll
font size
0
reset
guitar tuner
backing track
0:00
0:00
edit
Autoscroll
slow
fast
+/-
esc
set tempo
stop
-------------------------------------
 Royal Blood - Out of the Black
-------------------------------------
Tabbed by Cole Y.
Tuning: Drop D (D A D G)
Album: Royal Blood
Resources: https://www.youtube.com/watch?v=VnTkH7ZvKKs
Additional information: When Mike plays this song live, he uses a standard tuning rather
than a drop tuning, which means the song was originally recorded in D Standard (D G C A)
and not Drop D. However, I found it easiest to perform this version.

[Intro]

G|------------------------------------------------------------------|
D|------------------------------------------------------------------|
A|------------------------------------------------------------------|
D|-0x-15-15-15-15-15-15-0-15-0x-0x-15-15-15-15-15-15-0x-15-15-15-15-| x2


G|------------------------------------------------------------------|
D|------------------------------------------------------------------|
A|------------------------------------------------------------------|
D|-0--15-15-15-15-15-15-0-15-0--0--15-15-15-15-15-15-0--15-15-15-15-| x1


G|---------------------------------------------------------------------------------|
D|---------------------------------------------------------------------------------|
A|---------------------------------------------------------------------------------|
D|-0--15-15-15-15-15-15-0-15-0--0--15-15-15-15-15-15-0--15-15-15-15--0--15-15-15-15| x1


[Verse]

G|------------------------------------------------------------------|
D|------------------------------------------------------------------|
A|------------------------------------------------------------------|
D|-0-0-0-0-0-0-0-0-7-7-7-7-7-7-7-7-5-5-5-5-5-5-5-5-3-3-3-3-3-3-3-3--| x2
PM * * * * * * * * * * * * * * * * * * * * * * * * * * * * * * * *


G|------------------------------------------------------------------|
D|------------------------------------------------------------------|
A|------------------------------------------------------------------|
D|-0-0-0-0-0-0-0-0-7-7-7-7-7-7-7-7-8-8-8-8-8-8-8-8-2-2-2-2-2-2-2-2--| x1
PM * * * * * * * * * * * * * * * * * * * * * * * * * * * * * * * *


[Chorus]

G|---------10-10-10-----------10-10-10-----------------------------------|
D|---------12-12-12-----------12-12-12-----------------------------------|
A|----------------------------------------------5-5-5-5---------4-4-4-4--|
D|-0-0-0-0-----------0-0-0-0------------3-3-3-3---------2-2-2-2----------| x4


[Post-Chorus]

G|----------------------------------------------------------12b(14)--|
D|-------------------------------------------------------------------|
A|-------------------------------------------------------------------|
D|-0-0-0-0-0-0-0-0-7-7-7-7-7-7-7-7-8-8-8-8-8-8-8-8-2-2-2-2-----------| x1
PM * * * * * * * * * * * * * * * * * * * * * * * * * * * *


[Verse]

G|------------------------------------------------------------------|
D|------------------------------------------------------------------|
A|------------------------------------------------------------------|
D|-0-0-0-0-0-0-0-0-7-7-7-7-7-7-7-7-5-5-5-5-5-5-5-5-3-3-3-3-3-3-3-3--| x3
PM * * * * * * * * * * * * * * * * * * * * * * * * * * * * * * * * *

G|------------------------------------------------------------------|
D|------------------------------------------------------------------|
A|------------------------------------------------------------------|
D|-0-0-0-0-0-0-0-0-7-7-7-7-7-7-7-7-8-8-8-8-8-8-8-8-2-2-2-2-2-2-2-2--| x1
PM * * * * * * * * * * * * * * * * * * * * * * * * * * * * * * * * *


[Pre-Chorus]

G|----------------------------------|
D|-------------3-3-------------5-5--|
A|---------5-5-------------4-4------|
D|-3-3-3-3---------2-2-2-2----------| x2


[Chorus]

G|---------10-10-10-----------10-10-10-----------------------------------|
D|---------12-12-12-----------12-12-12-----------------------------------|
A|----------------------------------------------5-5-5-5---------4-4-4-4--|
D|-0-0-0-0-----------0-0-0-0------------3-3-3-3---------2-2-2-2----------| x4


[Post-Chorus]

G|------------------------------------------------------------------|
D|------------------------------------------------------------------|
A|------------------------------------------------------------------|
D|-0x-15-15-15-15-15-15-0-15-0x-0x-15-15-15-15-15-15-0x-15-15-15-15-| x2

G|------------------------------------------------------------------|
D|------------------------------------------------------------------|
A|------------------------------------------------------------------|
D|-0--15-15-15-15-15-15-0-15-0--0--15-15-15-15-15-15-0--15-15-15-15-| x1

G|--------------------------------------------------------------------|
D|--------------------------------------------------------------------|
A|--------------------------------------------------------------------|
D|-0--15-15-15-15-15-15-0-15-0--0--15-15-15-15-15-15-0--15-15-15-15\--| x1


[Pre-Chorus]

G|----------------------------------------------------------2-0------|
D|-------------3-3-------------5-5-------------3-3--------------3-2--|
A|---------5-5-------------4-4-------------5-5-----------------------|
D|-3-3-3-3---------2-2-2-2---------3-3-3-3---------2-2-2-------------| x1


[Chorus]

G|---------10-10-10----------------------------------------------------|
D|---------12-12-12----------------------------------------------------|
A|--------------------------------------------5-5-5-5---------4-4-4-4--|
D|-0-0-0-0-----------0-0-0-0--12/0----3-3-3-3---------2-2-2-2----------| x1


G|---------10-10-10------------12b(14)br12---------------------------------------|
D|---------12-12-12------------------------12------------------------------------|
A|------------------------------------------------------5-5-5-5---------4-4-4-4--|
D|-0-0-0-0-----------0-0-0-0--------------------3-3-3-3---------2-2-2-2----------| x1


G|---------10-10-10-----------10-10-10-----------------------------------|
D|---------12-12-12-----------12-12-12-----------------------------------|
A|----------------------------------------------5-5-5-5---------4-4-4-4--|
D|-0-0-0-0-----------0-0-0-0------------3-3-3-3---------2-2-2-2----------| x2


[Bridge]

G|------------------------------------------------------------------|
D|------------------------------------------------------------------|
A|-1-1-1-1-1-1-1-1--------------------------------------------------|
D|-----------------2-2-2-2-2-2-2-2-0-0-0-0-0-0-0-0-3-3-3-3-3-3-3-3--| x1


G|------------------------------------------------------------------|
D|------------------------------------------------------------------|
A|-1-1-1-1-1-1-1-1-----------------5-5-5-5-5-5-5-5-3-3-3-3-3-3-3-3--|
D|-----------------2-2-2-2-2-2-2-2----------------------------------| x1


G|------------------------------------------------------------------|
D|------------------------------------------------------------------|
A|-1-1-1-1-1-1-1-1--------------------------------------------------|
D|-----------------2-2-2-2-2-2-2-2-0-0-0-0-0-0-0-0-3-3-3-3-3-3-3-3--| x1


G|---------------------------|
D|---------------------------|
A|-1-1-1-1-1-1-1-1-----------|
D|-----------------2-2-2-2~--| x1


[Outro]

G|------------------------------------------------------------------|
D|-------------------------3-3--------------------------------------|
A|-5-5-------------1-1---------4-4-----5-5-----5-5-----4-4-5-5------|
D|-----3-3\7-7-0-0-----3-3---------5-5-----3-3-----2-2---------0-0--| x3


G|------------------------------------------------------------------|
D|-------------------------3-3--------------------------------------|
A|-5-5-------------1-1---------4-4-----5-5-----5-5-----4-4-5-5-5-5--|
D|-----3-3\7-7-0-0-----3-3---------5-5-----3-3-----2-2--------------| x1


G|----------------------------------------------------------------------|
D|----------------------------------------------------------------------|
A|-----5-5-----5-5-----4-4-5-5-5-5-----5-5-----5-5-----5-5-----5-5------|
D|-5-5-----3-3-----2-2-------------5-5-----3-3-----5-5-----3-3----------| x1


G|---------------------------------------|
D|---------------------------------------|
A|---------------------------------------|
D|-5-3-5-3-5-3-5-3-5-3-5-3-\15-15-15-15--| x1


G|-------------------------------|
D|-------------------------------|
A|-------------------------------|
D|-0--15-15-15-15-15-15-0-15-12/-| x1


***********************
/ = Slide Down
\ = Slide Up
x = Mute
~ = Vibrato
b = Bend
br = Bend Release
PM = Palm mute
**********************

            
            
Suggest correction
Creating personal tab
Creating personal tab
You can edit any tab online and save it as your Personal.

You can edit, replace or remove any tab part or add personal notes – all changes will be seen only by you.

Personal tabs can be accessed anytime from any device, even offline.
Learn more »
Give kudos to tab author, rate the tab!
1 2 3 4 5
comments
print report bad tab
guest
You may want to rate the tab now too:
select rating
Wanna post a correction for this tab? Suggest correction