Oops, an error
Loading. Please wait.

Sleep bass

version 1
version 1

Whole song

  • The only bass tab for the song Sleep.

Interactive

1,222 views 42 this week
3 commentsread comments
1 2 3 4 5
x 3
add to favorites
×
Save as Personal and add changes to this tab that will be seen only by you. Learn more ›
×
You can save this tab as Personal to edit and correct it or add notes. All changes will be seen only by you. Learn more »
launch autoscroll
font size
0
reset
guitar tuner
edit
Autoscroll
slow
fast
+/-
esc
set tempo
stop
About this tab version
The only bass tab for the song Sleep. Was this info helpful? Yes No
-------------------------------------------------------------------------------
                              Sleep - Royal Blood
-------------------------------------------------------------------------------
Tabbed by: Micah Hobson
E-mail: shadowbreakmusic@gmail.com

Tuning: Drop C

((Verse)) x8
F|---------------------------------------------------------------------------|
C|---------3h5-3---5/7\5-------3h5-3---2-------------------------------------|
G|-5---3h5-----------------3h5-------5---4-----------------------------------|
C|---0-----------0-----------------------------------------------------------|


((Pre-Chorus))
F|---------------------------------------------------------------------------|
C|---------3h5---------3h5---------3h5-3---3---------------------------------|
G|-1-1-3h5---------3h5-----3-3-3h5-------5---5-------------------------------|
C|-------------5-5-----------------------------------------------------------|

F|---------------------------------------------------------------------------|
C|---------3h5---------3h5---------3h5-3---2---------------------------------|
G|-1-1-3h5---------3h5-----3-3-3h5-------5---4-------------------------------|
C|-------------5-5-----------------------------------------------------------|


((Chorus))
F|---------------------------------------------------------------------------|
C|---------------------------------------------------------------------------|
G|---------------------5h8-5/7-5-------5-3---------------------8-5---5-3-----|
C|--8--8-8-7-5--5--5h7-----------7-0--------8--8-9-10--5h6h7-7---------------|

F|---------------------------------------------------------------------------|
C|---------------------------------------------------------------------------|
G|---------------------5h8-5/7-5-------5-3-----------------------------------|
C|--8--8-8-7-5--5--5h7-----------7-0--------8--8-9-10--5h6h7-7-3p2-3p2-3p2-0-|

[Break]
F|---------------------------------------------------------------------------|
C|---------3h5-3---5/7\5-------3h5-3---2-------------------------------------|
G|-5---3h5-----------------3h5-------5---4-----------------------------------|
C|---0-----------0-----------------------------------------------------------|


((Verse)) x4
F|---------------------------------------------------------------------------|
C|---------3h5-3---5/7\5-------3h5-3---2-------------------------------------|
G|-5---3h5-----------------3h5-------5---4-----------------------------------|
C|---0-----------0-----------------------------------------------------------|


((Pre-Chorus))
F|---------------------------------------------------------------------------|
C|---------3h5---------3h5---------3h5-3---3---------------------------------|
G|-1-1-3h5---------3h5-----3-3-3h5-------5---5-------------------------------|
C|-------------5-5-----------------------------------------------------------|

F|---------------------------------------------------------------------------|
C|---------3h5---------3h5---------3h5---------------------------------------|
G|-1-1-3h5---------3h5-----3-3-3h5-------------------------------------------|
C|-------------5-5-----------------------------------------------------------|


((Chorus))
F|---------------------------------------------------------------------------|
C|---------------------------------------------------------------------------|
G|---------------------5h8-5/7-5-------5-3---------------------8-5---5-3-----|
C|--8--8-8-7-5--5--5h7-----------7-0--------8--8-9-10--5h6h7-7---------------|

F|---------------------------------------------------------------------------|
C|---------------------------------------------------------------------------|
G|---------------------5h8-5/7-5-------5-3-----------------------------------|
C|--8--8-8-7-5--5--5h7-----------7-0--------8--8-9-10--5h6h7-7-3p2-3p2-3p2-0-|


((Bridge))
F|---------------------------------------------------------------------------------------------------|
C|-----------------------------------------------------------------7p5-------------------------------|
G|----------------------5--5-5-7-4--4-4\-1p0-1p0-----------------------8p7-5--5-5-4-3--3-3\----------|
C|--5--5-5-7-8--8-8-8\-----------------------------5--5-5-7-8--8-8--------------------------3p2-3p2--|

F|---------------------------------------------------------------------------------------------------|
C|---------------------------------------------------------------------------------------------------|
G|----------------------5--5-5-7-4--4-4\-1p0-1p0-----------------------------------------------------|
C|--5--5-5-7-8--8-8-8\-----------------------------5--5-5-7-8--8-8-8\--3p2-3p2-3p2-0-----------------|


((Solo)) 
F|-----------------------------------------------------17--------------------|
C|---------10h12---------11h12------------10h12-----17b---15-17\-------------|
G|---------------------------------------------------------------------------|
C|--8--8-8--------5--5-5--------10--10-10------------------------------------|

F|--------------------------------------------------21-22-21----19\----------|
C|---------10b-----------10*--------------15p14-15-----------22--------------|
G|---------------------------------------------------------------------------|
C|--8--8-8--------5--5-5--------10--10-10------------------------------------|


((Chorus)) 
F|---------------------------------------------------------------------------|
C|---------------------------------------------------------------------------|
G|---------------------5h8-5/7-5-------5-3---------------------8-5---5-3-----|
C|--8--8-8-7-5--5--5h7-----------7-0--------8--8-9-10--5h6h7-7---------------|

F|---------------------------------------------------------------------------|
C|---------------------------------------------------------------------------|
G|---------------------5h8-5/7-5-------5-3-----------------------------------|
C|--8--8-8-7-5--5--5h7-----------7-0--------8--8-9-10--5h6h7-7-3p2-3p2-3p2-0-|

((Outro))
F|---------------------------------------------------------------------------|
C|---------------------------------------------------------------------------|
G|---------------------------------------------------------------------------|
C|--0--0----0--0----0--0----0--0----0--0----0--0----0--0----0----------------|

Thanks for reading this tab! Remember to rate and comment and if you have any 
suggestions feel free to add 'em. I'll make sure to discuss them and improve 
the tab whenever possible.

************************************

| h   Hammer-on
| p   Pull-off
| b   Bend
| /   Slide up
| \   Slide down
| *   Pinch harmonic

************************************

            
            
Suggest correction
Creating personal tab
Creating personal tab
You can edit any tab online and save it as your Personal.

You can edit, replace or remove any tab part or add personal notes – all changes will be seen only by you.

Personal tabs can be accessed anytime from any device, even offline.
Learn more »
Give kudos to tab author, rate the tab!
1 2 3 4 5
comments
print report bad tab
3 comments total.
+2 reply
josepharthur41 33 Jul 03, 2017 12:04 PM

best band :)

0 reply
josepharthur41 33 Jul 24, 2017 12:51 PM

:)
....

guest
You may want to rate the tab now too:
select rating
Wanna post a correction for this tab? Suggest correction