Oops, an error
Loading. Please wait.

Ten Tonne Skeleton tab

version 3
version 3

Whole song

Interactive

601 views 6 this week
no commentswrite comment
1 2 3 4 5
3 more votes to show rating
add to favorites
×
Save as Personal and add changes to this tab that will be seen only by you. Learn more ›
×
You can save this tab as Personal to edit and correct it or add notes. All changes will be seen only by you. Learn more »
launch autoscroll
font size
0
reset
how to read this tab
guitar tuner
edit
Autoscroll
slow
fast
+/-
esc
set tempo
stop
Ten Tonne Skeleton – Royal Blood

Tuning: Whole Step down (D standard)

Legend
-------------
h  – hammer-on
/  - slide in
\  - slide out
|: - repeat
:| - end repeat
() – tied note/let ring
.  - staccato
r  - rest
hb - half bend
phb- pre-half bend
^  - slight bend

W – whole note
H – half note
Q - quarter note
E – eighth note
S – sixteenth note

Tempo: Slow Rock – 87 BPM

Intro & Chorus riff
     E E E E E E E S S   E E E E E E E S S
D|---------------------|-------------------|
A|-o-------------------|-------------------|
F|-----9---7---11--7h9-|---9---7---11--7h9-|
C|---------------------|-------------------|
G|-o-------------------|-------------------|
D|---0---0---0---0-----|-0---0---0---0-----|

   E E E E E E E S S   E E E E E E E S S  x2
D|-------------------|---------------------|
A|-------------------|-------------------o-|
F|---9---7---11--7h9-|---9---7---11--7h9---|
C|-------------------|---------------------|
G|-------------------|-0---0---0---0-----o-|
D|-8---8---8---8-----|---------------------|

Verse riff
      H   H     H   H     H   H     H   Q Q  x2
D|-----------|---------|---------|------------|
A|-o---------|---------|---------|----------o-|
F|-----------|---------|---------|------------|
C|-----------|---------|---------|------------|
G|-o-/7\-/7\-|-/7\-/7\-|---------|----------o-|
D|-----------|---------|-/8\-/8\-|-/5\-/3-2---|

Chorus riff

Verse riff

Pre-Chorus
   W   W
D|---|---|
A|---|---|
F|---|---|
C|---|---| 
G|---|---|
D|-8-|-5-|

Chorus riff

Bridge
   SSSSSSSSSSSSSSSS   SSSSSSSSSSSSSSSS
D|------------------|------------------|
A|------------------|------------------|
F|------------------|------------------|
C|------------------|------------------|
G|-3333333333333333-|-2222222222222222-|
D|------------------|------------------|

Middle 8
   W    W    W   W   W    W    W   Q Q Q. E
D|---|-----|---|---|---|-----|---|-----------|
A|---|-----|---|---|---|-----|---|-----------|
F|---|-----|---|---|---|-----|---|-----r-----|
C|---|-----|---|---|---|-----|---|-----------|
G|---|-----|---|---|---|-----|---|-----------|
D|-0-|-(0)-|-9-|-5-|-0-|-(0)-|-9-|-8-8---12\-|
                                   . .

Final Chorus
   E E E E E E E S S   E E E E E E E S S
D|-------------------|-------------------|
A|-------------------|-------------------|
F|---9---7---11--7h9-|---9---7---11--7h9-|
C|-------------------|-------------------|
G|-------------------|-------------------|
D|-0---0---0---0-----|-0---0---0---0-----|

   E E E E E E E S S   E E E E S       S  S  S  S  E.
D|-------------------|--------------------------------|
A|-------------------|--------------------------------|
F|---9---7---11--7h9-|---9---7------------------------|
C|-------------------|--------------------------------|
G|-------------------|-0---0---12hb-phb12-12-10-12----|
D|-8---8---8---8-----|-----------------------------12-|

   E E  E E  E E  E S S   E E  E E  E E  E S S
D|----------------------|----------------------|
A|----------------------|----------------------|
F|---15^--14^--12^--7h9-|---15^--14^--12^--7h9-|
C|----------------------|----------------------|
G|----------------------|----------------------|
D|-0----0----0----0-----|-0----0----0----0-----|

   E E E E E E E S S   E E E E E E E S S
D|-------------------|-------------------|
A|-------------------|-------------------|
F|---9---7---11--7h9-|---9---7---11--7h9-|
C|-------------------|-------------------|
G|-------------------|-0---0---0---0-----|
D|-8---8---8---8-----|-------------------|

Outro
     SSSSSSSSSSSSSSSS   SSSSSSSSSSSSSSSS  x2
D|--------------------|--------------------|
A|-o------------------|------------------o-|
F|--------------------|--------------------|
C|--------------------|--------------------|
G|-o-3333333333333333-|-2222222222222222-o-|
D|--------------------|--------------------|

   SSSSSSSSSSSSSSSS   SSSSSSSSSSSSSSSS
D|------------------|------------------|
A|------------------|------------------|
F|------------------|------------------|
C|------------------|------------------|
G|-3333333333333333-|------------------|
D|------------------|-2222222222222222-|

   E E E S S H
D|-------------|
A|-------------|
F|---9---7h9---|
C|-------------| 
G|-------------|
D|-0---0-----0-|

            
            
Suggest correction
Creating personal tab
Creating personal tab
You can edit any tab online and save it as your Personal.

You can edit, replace or remove any tab part or add personal notes – all changes will be seen only by you.

Personal tabs can be accessed anytime from any device, even offline.
Learn more »
Give kudos to tab author, rate the tab!
1 2 3 4 5
comments
print report bad tab
guest
You may want to rate the tab now too:
select rating
Wanna post a correction for this tab? Suggest correction