Oops, an error
Loading. Please wait.

Where Are You Now chords

version 1
version 1

Whole song

Interactive

1,726 views 30 this week
no commentswrite comment
1 2 3 4 5
x 9
add to favorites
×
Save as Personal and add changes to this tab that will be seen only by you. Learn more ›
×
You can save this tab as Personal to edit and correct it or add notes. All changes will be seen only by you. Learn more »
launch autoscroll
font size
0
reset
transpose
0
reset
display chords
guitar tuner
edit
Autoscroll
slow
fast
+/-
esc
set tempo
stop
Strumming
There is no strumming pattern for this song yet. and get +5 IQ
Where are you now – Royal Blood

[Drums]
[Intro – E played as E5 most of the time]
E

[Fill used in the verses as well]
e|----10-----|
b|-12--------|
G|-------12b-|

E                                                    
I was an honest boy, yeah, I was brought up right    
E
Fell for an honest girl, yeah, We were so tight
         G         D           E
If only luck was always on our side
E
You gave in all your secrets, Didn't give in mine
E
Nowhere to left run, no, We live to shine
G            D           E
If only love was on your side
G                 D               ...
And I was just a stranger passing by

[Riff 1] x2
e|-------------------------|-------------------------|
B|-------------------------|-------------------------|
G|-------------------------|-------------------------|
D|-------------------------|--------------------5b---|
A|----------------6----6-7-|----------------5-7----7-|
E|-0-3--0-3-5--/5----5-----|-0-3--0-3-5--/7----------|

E
You saw me driving my car, Like a dog running wild
E
Oh my hands were shaking Singing, "where are you now?"
G       D              E
I wish I could go back somehow
G            D                 
Just tell me baby, where are you now?
[Riff 1]
Where are you now?

[Bridge]
   C           Am          B          E
G|-----------------------------------------------|
D|-----------------------------------1-----------|
A|-3-3--3-3-2--0-0--0-0----2-2--2-2------------2-|
E|----------------------3-------------0-0--0-4---|

C                 Am       B                   E
I've tasted every person, they don't taste like you
C                 Am           B                   E
You're a teardrop in an ocean Still we're drinking through
C                 Am             B              E
And I still wonder where you are and who you're talking to
C            Am       B         B
When I think about it I can't move
C                  Am     B    E
Where are you now? 
C               Am   B    B
Where are you now?

[Riff 1] x2
Yeah!

E
[Outro]
D|--------------------------------------|
A|-10h12/14\12-10----10-----------------|
E|----------------12----12-10-12-10-7-0-|

_________________________________
For Femme and Kelly at BCR Sydney

            
            
Suggest correction
Creating personal tab
Creating personal tab
You can edit any tab online and save it as your Personal.

You can edit, replace or remove any tab part or add personal notes – all changes will be seen only by you.

Personal tabs can be accessed anytime from any device, even offline.
Learn more »
comments
print report bad tab
guest
You may want to rate the tab now too:
select rating
Wanna post a correction for this tab? Suggest correction