Oops, an error
Loading. Please wait.

Where Are You Now bass

version 2
version 2

Whole song

Interactive

1,639 views 3 this week
no commentswrite comment
1 2 3 4 5
x 3
add to favorites
×
Save as Personal and add changes to this tab that will be seen only by you. Learn more ›
×
You can save this tab as Personal to edit and correct it or add notes. All changes will be seen only by you. Learn more »
launch autoscroll
font size
0
reset
guitar tuner
edit
Autoscroll
slow
fast
+/-
esc
set tempo
stop
Author
Difficulty
[Intro]

G|---------------------------------------------------------------------------|
D|---------------------------------------------------------------------------|
A|---------------------------------------------------------------------------|
E|-7/12---12-12-12-12-12---12-12-12-12-12---12-12-12-12-12---12-12-12-12-12--|

G|---------------------------------------------------------------------------|
D|--------------------------------------------------12-----------------------|
A|-----------------------------------------------14----10--------------------|
E|-12-12-12-12-12---12-12-12-12-12---12-12-12-12-----------------------------|


[Verse] x2

G|---------------------------------------------------------------------------|
D|---------------------------------------------------------------------------|
A|---------------------------------------------------------------------------|
E|-12---12-12-12-12-12---12-12-12-12-12---12-12-12-12-12---12-12-12-12-12----|

G|---------------------------------------------------------------------------|
D|--------------------------------------------------12-----------------------|
A|-----------------------------------------------14----10--------------------| 
E|-12-12-12-12-12---12-12-12-12-12---12-12-12-12-----------------------------|

G|---------------------------------------------------------------------------|
D|---------------------------------------------------------------------------|
A|---------------------------------------------------------------------------|
E|-12---12-12-12-12-12---12-12-12-12-12---12-12-12-12-12---12-12-12-12-12----|

G|---------------------------------------------------------------------------|
D|--------------------------------------------------12-----------------------|
A|-----------------------------------------------14----10--------------------| 
E|-12-12-12-12-12---12-12-12-12-12---12-12-12-12-----------------------------|

G|---------------------------------------------------------------------------|
D|-----------------------------------12---12-12-12-12-12---12-12-12-12-------|
A|-10---10-10-10-10-10---10-10-10-10-----------------------------------------|
E|---------------------------------------------------------------------12----|

G|---------------------------------------------------------------------------|
D|--------------------------------------------------12-----------------------|
A|-----------------------------------------------14----10--------------------|
E|-12-12-12-12-12---12-12-12-12-12---12-12-12-12-----------------------------|


[Pre-Chorus]

G|---------------------------------------------------------------------------|
D|---------------------------------------------------------------------------|
A|-10---10-10-10-10-10---10-10-10-10-----------------------------------------|
E|-----------------------------------10---10-10-10-10-10---10-10-10-10-------|

[Chorus]

G|---------------------------------------------------------------------------|
D|-------------------------------------------------5b------------------------|
A|-----------------6-----6-7-------------------5-7----7----------------------|
E|-0-3---0-3-5---5-----5-------0-3---0-3-5---7-------------------------------|

G|---------------------------------------------------------------------------|
D|-------------------------------------------------5b------------------------|
A|-----------------6-----6-7-------------------5-7----7----------------------|
E|-0-3---0-3-5---5-----5-------0-3---0-3-5---7-------------------------------|

[Verse]

G|---------------------------------------------------------------------------|
D|---------------------------------------------------------------------------|
A|---------------------------------------------------------------------------|
E|-7/12---12-12-12-12-12---12-12-12-12-12---12-12-12-12-12---12-12-12-12-12--|

G|---------------------------------------------------------------------------|
D|--------------------------------------------------12-----------------------|
A|-----------------------------------------------14----10--------------------|
E|-12-12-12-12-12---12-12-12-12-12---12-12-12-12-----------------------------|

G|---------------------------------------------------------------------------|
D|---------------------------------------------------------------------------|
A|---------------------------------------------------------------------------|
E|-12---12-12-12-12-12---12-12-12-12-12---12-12-12-12-12---12-12-12-12-12----|

G|---------------------------------------------------------------------------|
D|--------------------------------------------------12-----------------------|
A|-----------------------------------------------14----10--------------------| 
E|-12-12-12-12-12---12-12-12-12-12---12-12-12-12-----------------------------|

G|---------------------------------------------------------------------------|
D|-----------------------------------12---12-12-12-12-12---12-12-12-12-------|
A|-10---10-10-10-10-10---10-10-10-10-----------------------------------------|
E|---------------------------------------------------------------------12----|

G|---------------------------------------------------------------------------|
D|--------------------------------------------------12-----------------------|
A|-----------------------------------------------14----10--------------------|
E|-12-12-12-12-12---12-12-12-12-12---12-12-12-12-----------------------------|

[Pre-Chorus]

G|---------------------------------------------------------------------------|
D|-----------------------------------12---12-12-12-12-12---12-12-12-12-------|
A|-10---10-10-10-10-10---10-10-10-10-----------------------------------------|
E|---------------------------------------------------------------------------|

[Chorus]

G|---------------------------------------------------------------------------|
D|-------------------------------------------------5b------------------------|
A|-----------------6-----6-7-------------------5-7----7----------------------|
E|-0-3---0-3-5---5-----5-------0-3---0-3-5---7-------------------------------|

G|---------------------------------------------------------------------------|
D|-------------------------------------------------5b------------------------|
A|-----------------6-----6-7-------------------5-7----7----------------------|
E|-0-3---0-3-5---5-----5-------0-3---0-3-5---7-------------------------------|

[Break}

G|---------------------------------------------------------------------------|
D|---------------------------------------1-----------------------------------|
A|-3-3---3-3-2---0-0---0-0-----2-2---2-2---------------2---------------------|
E|-------------------------3-----------------0-0---0-4-----------------------|

G|---------------------------------------------------------------------------|
D|---------------------------------------1-----------------------------------|
A|-3-3---3-3-2---0-0---0-0-----2-2---2-2---------------2---------------------|
E|-------------------------3-----------------0-0---0-4-----------------------|

G|---------------------------------------------------------------------------|
D|---------------------------------------1-----------------------------------|
A|-3-3---3-3-2---0-0---0-0-----2-2---2-2---------------2---------------------|
E|-------------------------3-----------------0-0---0-4-----------------------|

G|---------------------------------------------------------------------------|
D|---------------------------------------------------------------------------|
A|-3-3---3-3-2---0-0---0-0-----2-2---2-2-2---2-2-2---2-2-2-------------------|
E|-------------------------3-------------------------------------------------|

G|---------------------------------------------------------------------------|
D|---------------------------------------1-----------------------------------|
A|-3-3---3-3-2---0-0---0-0-----2-2---2-2-------------7-5---------------------|
E|-------------------------3-----------------0-0---0-------------------------|

G|---------------------------------------------------------------------------|
D|------------------------------------------------------------(these are 14s)|
A|-3-3---3-3-2---0-0---0-0-----2-2---2-2-2---141414141414141414141414--------|
E|-------------------------3-------------------------------------------------|


[Outro]

G|---------------------------------------------------------------------------|
D|-------------------------------------------------5b------------------------|
A|-----------------6-----6-7-------------------5-7----7----------------------|
E|-0-3---0-3-5---5-----5-------0-3---0-3-5---7-------------------------------|

G|---------------------------------------------------------------------------|
D|--------------------------------5---6-7-------5b---------------------------|
A|-----------------6------6-7---7---7-------5-7----7-------------------------|
E|-0-3---0-3-5---5-----5------------------7----------------------------------|

G|---------------------------------------------------------------------------|
D|-----------------------------------------9---------------------------------|
A|-----------------------------------10-12---12-10----10---------------------|
E|-12---12-12-12-12-12---12-12-12-12---------------12----12-10-12-10-7-0-----|


************************************

| x   Dead note
| g   Grace note
| (n) Ghost note
| h   Hammer-on
| p   Pull-off
| r   Release
| >   Accented note
| t   Tapping
| b   Bend
| br  Bend release
| pb  Pre-bend
| pbr Pre-bend release
| /   Slide up
| \   Slide down
| ~   Vibrato
| s   Slap
| P   Pop
| PM  Palm mute
| TR  Trill
| N   Tremolo

************************************

            
            
Suggest correction
Creating personal tab
Creating personal tab
You can edit any tab online and save it as your Personal.

You can edit, replace or remove any tab part or add personal notes – all changes will be seen only by you.

Personal tabs can be accessed anytime from any device, even offline.
Learn more »
Give kudos to tab author, rate the tab!
1 2 3 4 5
comments
print report bad tab
guest
You may want to rate the tab now too:
select rating
Wanna post a correction for this tab? Suggest correction