Oops, an error
Loading. Please wait.

Suda Mi Cuerpo chords

61 views 1 this week
no commentswrite comment
1 2 3 4 5
3 more votes to show rating
add to favorites
×
Save as Personal and add changes to this tab that will be seen only by you. Learn more ›
×
You can save this tab as Personal to edit and correct it or add notes. All changes will be seen only by you. Learn more »
launch autoscroll
font size
0
reset
transpose
0
reset
display chords
guitar tuner
edit
Autoscroll
slow
fast
+/-
esc
set tempo
stop
Strumming
There is no strumming pattern for this song yet. and get +5 IQ
ROYAL CLUB - SUDA MI CUERPO

E-mail: skaeduardoska@

Bueno esta rolita se la quiero dedicar a toda la banda que le
 late el ska a la huelga latina y por supusesto a Los fanaticos
del tequila suerte y que siga la fiesta y el carnaval después
les subo más rolitas de la royal y la matatena jejej se me
olvidaba toda la rola va en cejilla.

Intro:
E - C#m - C -  B       x 4

Cuando entran los metales va este juego de notas:
E - B - C#m - B - A       x 2

E                                      B
Siento la noche caer y que se apaga el fuego

   C#m                          B     A
Y que la luna se derrama frente a mi


E                             B
Entre la oscuridad te miro y tiemblo

   C#m                           B     A
Y el silencio se a clavado tras de mi


Juego de metales:
E - B - C#m - B - A       x 2


E                                        B
Siento el frio llegar y que se acaba el tiempo

   C#m                          B     A
Y  las caricias ya no fluyen para mi


E                                B
Entre la multitud todo se hace eterno

   C#m                         B
Y las palabras ya no suenan para mi


Cambio de notas:

G#                           A
Suda mi cuerpo y va dejando el suelo

E                          B   A
Suda mi cuerpo y tu no estas aquí

G#                           A
Suda mi cuerpo y va dejando el suelo

E                          B   A
Suda mi cuerpo y tu no estas aquí


Y claro no puede faltar el requintillo se
 los dejo (Nota: 1 guitarra
sigue haciendo estas notas
E - B - C#m - B - A y A
otra esta en el requinto) Ojo
el pedazo que tiene * va en Hamler
creo que asi se escribe de todas
maneras oigan la rola y metanlo:

e||--7--7-----------------------------------|
b||-7--9--9--7--6--5--4--4--5------5--7--9--|
G||---------------------------5--6----------|

e||---  ----------------------10------10----|
b||-9--7--5--9--7--5--7--8-*10---12-10----12|
G||-----------------------------------------|

e||---10-------10-----10-------10-----14--14|
b||-10---12-10---12-10---12-10----12*-------|
G||-----------------------------------------|

e||-13--11----------------------------------|
b||--------12-12-13-13-14-14-16-16-18-16----|
G||-----------------------------------------|

e||-----------------------------------------|
b||-20-18-16-18-21-21-----------------------|
G||-----------------------------------------|
Cuando acaba el requinto enpieza un pequeño
cambio de ritmo el principio va un pequeño rasgueo
 tu ya si quieres y se oye bien le puedes
meter Palm mute:

C#m - B - C#m - B - DO#m - SI - DO#m - SI

Cambio de notas:

G#                            A
Suda mi cuerpo y va dejando el suelo

E                          B   A
Suda mi cuerpo y tu no estas aquí

G#                            A
Suda mi cuerpo y va dejando el suelo

E                          B   A
Suda mi cuerpo y tu no estas aquí

Aquí en este otro pedazo una guitarra esta
haciendo el ritmo ska   Mi - Si - Do#m - Si - La  y
la otra la sigue pero con el
requinto y con los metales.
e||--7--7-----------------------------------|
b||-7--9--9--7--6--5--4--4--5------5--7--9--|
G||---------------------------5--6----------|

e||---  ----------------------10------10----|
b||-9--7--5--9--7--5--7--8-*10---12-10----12|
G||-----------------------------------------|

e||---10-------10-----10-------10-----14--14|
b||-10---12-10---12-10---12-10----12*-------|
G||-----------------------------------------|

e||-13--11----------------------------------|
b||--------12-12-13-13-14-14-16-16-18-16----|
G||-----------------------------------------|

e||-----------------------------------------|
b||-20-18-16-18-21-21-----------------------|
G||-----------------------------------------|

Y se acerco el final el final va en quintas
y con un poco de distorsión:

E - C#m - C -  B       x 4

Pues esta sencilla la rola practiquenla por
que tiene bastantes cambios y sobre el bajeo
son las mismas notas pero en quientas todo
 va en quintas el bajeo
 esta sencillisima esta cansion y entren
 a esta web de esta banda
 y dejen su opinión sobre ella misma

 y un saludo a toda la banda pronto
 subire mas de los rude boys
de su nuevo disco que esta BIEN CHINGON.
 Camaras cualquier duda
 o aclaracion skaeduardoska@

            
            
Suggest correction
Creating personal tab
Creating personal tab
You can edit any tab online and save it as your Personal.

You can edit, replace or remove any tab part or add personal notes – all changes will be seen only by you.

Personal tabs can be accessed anytime from any device, even offline.
Learn more »
Give kudos to tab author, rate the tab!
1 2 3 4 5
comments
print report bad tab
guest
Wanna post a correction for this tab? Suggest correction