Oops, an error
Loading. Please wait.

Addictive Bass Tab

version 1
version 1

Whole song

Interactive

4,236 views 12 this week
no commentswrite comment
1 2 3 4 5
please rate
add to favorites
launch autoscroll
font size
0
reset
guitar tuner
Autoscroll
slow
fast
+/-
esc
set tempo
stop
Help us to improve Ultimate-Guitar.com Take our survey!
×
Author
Difficulty
intermediate
BASS TAB
Royal Republic - Addictive

Copyright © by niels241.

           8x                         6x                           2x
G|---|---------|------------------|---------|------------------|---------|
D|---|---------|---------11111111-|---------|---------11111111-|---------|
A|---|-----1---|-33333333---------|-----1---|-33333333---------|-----1---|
E|15/|33313-31-|------------------|33313-31-|------------------|33313-31-|

                        2x
G|------------------|---------|--------------|
D|---------11111111-|---------|---------1111-|
A|-11111111---------|-----1---|-11111111-----|
E|------------------|33313-31-|--------------|


2x silence

      4x                           6x                           2x
G|----------|------------------|---------|------------------|---------|
D|----------|---------11111111-|---------|---------11111111-|---------|
A|------1---|-33333333---------|-----1---|-33333333---------|-----1---|
E|-33313-31-|------------------|33313-31-|------------------|33313-31-|

                        2x                            2x
G|------------------|---------|------------------|---------|
D|---------11111111-|---------|---------11111111-|---------|
A|-11111111---------|-----1---|-11111111---------|-----1---|
E|------------------|33313-31-|------------------|33313-31-|



G|------------------------------------------|
D|------------------------------------------|
A|-3333333366666666/10101010101410988888-12-|     Note: read as 10 10 10 14 10 9,
E|--------------------------------------3---|     not 1 0 1 0 1 0 1 4 1 0 9

G|-------------------------------------|
D|-------------------------------------|
A|-33333333666666666666666688888888-10-| (16x 6)
E|-------------------------------------|

G|3-|3-3-3-3-333----3-3-3-333-333---3-3-3-3----3--3---------|
D|-5|---5---5---5--5-5---5---5---5-5-5-----535-----5-5/17/5-|
A|--|-------------------------------------------------------|
E|--|-------------------------------------------------------|


4x silence

           4x                         6x                           2x
G|---|---------|------------------|---------|------------------|---------|
D|---|---------|---------11111111-|---------|---------11111111-|---------|
A|---|-----1---|-33333333---------|-----1---|-33333333---------|-----1---|
E|15/|33313-31-|------------------|33313-31-|------------------|33313-31-|

                        2x                           2x
G|------------------|---------|------------------|---------|
D|---------11111111-|---------|---------11111111-|---------|
A|-11111111---------|-----1---|-11111111---------|-----1---|
E|------------------|33313-31-|------------------|33313-31-|

                     2x
G|------------------------------------------|
D|------------------------------------------|
A|-3333333366666666/10101010101410988888888-|     Note: read as 10 10 10 14 10 9,
E|------------------------------------------|     not 1 0 1 0 1 0 1 4 1 0 9

G|--------------------------------------|
D|--------------------------------------|
A|-33333333666666666666666688888888-10~-| (16x 6)
E|--------------------------------------|
Suggest correction
What's this?
You can suggest a correction to this tab. Community and Mods will review your correction and vote to approve or reject it.
comments
We did not receive enough feedback on this tab! Please rate:
print report bad tab
1 2 3 4 5
guest
You may want to rate the tab now too:
select rating
Please do not post tabs as comments. Select "correction" instead!