Oops, an error
Loading. Please wait.

All Because Of You bass

version 1
version 1

Whole song

Interactive

905 views 1 this week
2 commentsread comments
1 2 3 4 5
x 3
add to favorites
×
Save as Personal and add changes to this tab that will be seen only by you. Learn more ›
×
You can save this tab as Personal to edit and correct it or add notes. All changes will be seen only by you. Learn more »
launch autoscroll
font size
0
reset
guitar tuner
edit
Autoscroll
slow
fast
+/-
esc
set tempo
stop
Difficulty
This song is easy as shit but its really good:')

Verse:

E--3-3-3-3-3-3-3-3-3-3-3---|
A--------------------------|
D--------------------------|
G--------------------------|
Repeat that til...

Chorus

E-x-x-x-x-x-x-3---3-/6-/3-----------------------------------6-8-8-|
A------------------------------3-3---3-/6-/3--6-6-8-8-------------|
D-----------------------------------------------------------------|
G-----------------------------------------------------------------|

Backing for solo

E--5-5-5-5-5-5-5-5-3-3-3-3-----------------|
A----------------------------------5-5-5-5-|
D------------------------------------------|
G------------------------------------------|

That's pretty much it, I'm sure you can work out where the order:)

            
            
Suggest correction
Creating personal tab
Creating personal tab
You can edit any tab online and save it as your Personal.

You can edit, replace or remove any tab part or add personal notes – all changes will be seen only by you.

Personal tabs can be accessed anytime from any device, even offline.
Learn more »
Give kudos to tab author, rate the tab!
1 2 3 4 5
comments
print report bad tab
2 comments total.
0 reply
niels241 129 Jun 16, 2015 12:44 PM

Lack of accuracy. Clearly wrong. The tab is wrong. For example, things are mapped to the wrong string and you're missing a lot of details and nice bass walks further along in the song.

0 reply
velazquezmotogp 10 Jul 28, 2015 01:15 PM

Tab incomplete. Don't complete... This music have more and more details... It's a poor solo a a a a a a a aa a a a a a a a a a a a a a a aa a a a a a

guest
Wanna post a correction for this tab? Suggest correction