Oops, an error
Loading. Please wait.

Cry Baby Cry bass

version 1
version 1

Whole song

Interactive

1,780 views 3 this week
1 commentread comment
1 2 3 4 5
x 3
add to favorites
×
Save as Personal and add changes to this tab that will be seen only by you. Learn more ›
×
You can save this tab as Personal to edit and correct it or add notes. All changes will be seen only by you. Learn more »
launch autoscroll
font size
0
reset
guitar tuner
edit
Autoscroll
slow
fast
+/-
esc
set tempo
stop
Author
Difficulty
Cry Baby Cry – Royal Republic
Bass Tab
Tabbed by: Chunk
Email: tylerlee2009@hotmail.co.uk
Tuning: Standard (EADG)

Can't seem to find any tabs for this song so thought I’d give it a go, it's my first tab 
and it's tabbed by ear so apologies for any mistakes. Wasn't sure whether to put it as 
beginner or intermediate but it doesn't really matter.  
(4/4 time signature)

Intro – 4 bars rest

Verse 1– Before singing (4 bars)
G|---------------------------------------------------------------|
D|---------------------------------------------------------------|
A|---------------------------------------------------------------|
E|-12-12----12-3-3----3-5-5----5--8-8-11-11----------------------| X 2


Verse 1 - (8 bars)
(There are two ways you can play this depending on which you prefer)
“There's always something about you always something wrong...”
G|---------------------------------------------------------------|
D|---------------------------------------------------------------|
A|---------------------------------------------------------------|
E|-0-0----3-3----0-0----5-5-3-3----------------------------------| X 4
                               OR
G|---------------------------------------------------------------|
D|--------5-5-----------7-7-5-5----------------------------------|
A|-7-7-----------7-7---------------------------------------------|
E|---------------------------------------------------------------| X 4


Pre Chorus – (4 bars)
(Second time through miss the very last note)
“But now it's the real deal no one's gonna pity you now....”
G|---------------------------------------------------------------|
D|---------------------------------------------------------------|
A|---------------------------------------------------------------|
E|-12-12-12--3-3-3--5-5-5--8-8-11-11-----------------------------| X 2


Chorus - (7 bars)
“Cry baby cry I don't need to know why”
G|---------------------------------------------------------------|
D|---------------------------------------------------------------|
A|-3-3-3-3---------5-5-5-5---------------------------------------|
E|---------3-3-3-3---------5-5-5-5-------------------------------|
"So get out of my sight! (and let me got on with my...)”
G|---------------------------------------------------------------|
D|---------------------------------------------------------------|
A|-3-3-3-3---------5-5-5-5-7-7-7-7-------------------------------|
E|---------3-3-3-3-----------------------------------------------|
“Cry baby cry I don't need to know why”
G|---------------------------------------------------------------|
D|---------------------------------------------------------------|
A|-3-3-3-3---------5-5-5-5---------------------------------------|
E|---------3-3-3-3---------5-5-5-5-------------------------------|
“So get out of my sight!”
G|---------------------------------------------------------------|
D|---------------------------------------------------------------|
A|-3-3-3-3---------5---------------------------------------------|
E|---------3-3-3-3-----------------------------------------------|


Post Chorus - (3 bars rest)
“And let me get on with my life...”


Verse 2 – (8 bars)
(Again, there are two ways you can play this depending on which you prefer)
“So what's the story today, is it a broken nail?”
G|---------------------------------------------------------------|
D|---------------------------------------------------------------|
A|---------------------------------------------------------------|
E|-0-0----3-3----0-0----5-5-3-3----------------------------------| X 4
                               OR
G|---------------------------------------------------------------|
D|--------5-5-----------7-7-5-5----------------------------------|
A|-7-7-----------7-7---------------------------------------------|
E|---------------------------------------------------------------| X 4


Pre Chorus 2 – (4 bars)
(Second time through miss the very last note)
“But now it's the real deal no one's gonna pity you now....”
G|---------------------------------------------------------------|
D|---------------------------------------------------------------|
A|---------------------------------------------------------------|
E|-12-12----3-3----5-5----8-8-11-11------------------------------| X 2


Chorus 2 - (8 bars)
“Cry baby cry I don't need to know why,”
G|---------------------------------------------------------------|
D|---------------------------------------------------------------|
A|-3-3-3-3---------5-5-5-5---------------------------------------|
E|---------3-3-3-3---------5-5-5-5-------------------------------|
“So get out of my sight! (and let me got on with my...)”
G|---------------------------------------------------------------|
D|---------------------------------------------------------------|
A|-3-3-3-3---------5-5-5-5-7-7-7-7-------------------------------|
E|---------3-3-3-3-----------------------------------------------|
“Cry baby cry I don't need to know why”
G|---------------------------------------------------------------|
D|---------------------------------------------------------------|
A|-3-3-3-3---------5-5-5-5---------------------------------------|
E|---------3-3-3-3---------5-5-5-5-------------------------------|
“So get out of my sight! … It's always...”
G|---------------------------------------------------------------|
D|---------------------------------------------------------------|
A|-3-3-3-3---------5-5-5-5-5-------------------------------------|
E|---------3-3-3-3-----------0-3-4-------------------------------|


Bridge - (8 bars) [Alternative at the bottom of the page]
“One thing or the other, why should I even bother?”
G|---------------------------------------------------------------|
D|---------------------------------------------------------------|
A|---------------------------------------------------------------|
E|-5-5-5-3-5-5-5-3-5-5-5-3-5-5-5-3-------------------------------|
                “…...Turn it the”
G|---------------------------------------------------------------|
D|---------------------------------------------------------------|
A|---------------------------------------------------------------|
E|-0-0----3-3----0-0----3-0-3-4----------------------------------|
“other way around, get your feet back on the ground”
G|---------------------------------------------------------------|
D|---------------------------------------------------------------|
A|---------------------------------------------------------------|
E|-5-5-5-3-5-5-5-3-5-5-5-3-5-5-5-3-------------------------------|
“Just let me get on with my, just let me get on with my life!”
G|---------------------------------------------------------------|
D|---------------------------------------------------------------|
A|-3-3-3-0-3-3-3-4-5-5-5-3-5-5-5-5-------------------------------|
E|----------------------------------0~~~~~-----------------------|


Interlude – (6 bars)
5 bars rest
“...your song”
G|---9-7---------------------------------------------------------|
D|------9-7-5----------------------------------------------------|
A|------------7-5------------------------------------------------|
E|---------------------------------------------------------------|


Verse 3 – (4 bars) [Can be played alternative way but this seems easier]
“Don't have to tell me 'bout your fever 'coz I already know”
G|---------------------------------------------------------------|
D|--------5-5-----------7-7-5-5----------------------------------|
A|-7-7-----------7-7---------------------------------------------|
E|---------------------------------------------------------------| X 2


Pre Chorus 3 – (8 bars)
“Stop take a look in the mirror is it really that bad....”
G|---------------------------------------------------------------|
D|---------------------------------------------------------------|
A|---------------------------------------------------------------|
E|-12-12----3-3----5-5----8-8-11-11------------------------------| X 3

“So come on, just let it in, (Let it out!)”
G|---------------------------------------------------------------|
D|---------------------------------------------------------------|
A|---------------------------------------------------------------|
E|-12-12----3-3----5---------------------------------------------|


Chorus 3 - (9 bars)
“Cry baby cry I don't need to know why,”
G|---------------------------------------------------------------|
D|---------------------------------------------------------------|
A|-3-3-3-3---------5-5-5-5---------------------------------------|
E|---------3-3-3-3---------5-5-5-5-------------------------------|
“So get out of my sight! (and let me got on with my...)”
G|---------------------------------------------------------------|
D|---------------------------------------------------------------|
A|-3-3-3-3---------5-5-5-5-7-7-7-7-------------------------------|
E|---------3-3-3-3-----------------------------------------------|
“Cry baby cry I don't need to know why”
G|---------------------------------------------------------------|
D|---------------------------------------------------------------|
A|-3-3-3-3---------5-5-5-5---------------------------------------|
E|---------3-3-3-3---------5-5-5-5-------------------------------|
“So get out of my sight!”
G|---------------------------------------------------------------|
D|---------------------------------------------------------------|
A|-3-3-3-3---------7~~~~-----------------------------------------|
E|---------3-3-3-3-----------------------------------------------|
“Yeah Yeah Yeeeaaah!”
G|---------------------------------------------------------------|
D|---------------------------------------------------------------|
A|-7--7--7-------------------------------------------------------|
E|---------------------------------------------------------------|


Outro – (7 bars)
 “ Yeah!  Yeah!  Yeeeaaah!..”
G|---------------------------------------------------------------|
D|---------------------------------------------------------------|
A|-3-3-3-3---------5-5-5-5---------------------------------------|
E|---------3-3-3-3---------5-5-5-5-------------------------------|
  “Yeah!  Yeah!  Yeeeaaah!.. (and let me get on with my)”
G|---------------------------------------------------------------|
D|---------------------------------------------------------------|
A|-3-3-3-3---------5-5-5-5-7-7-7-7-------------------------------|
E|---------3-3-3-3-----------------------------------------------|
  “Yeah!  Yeah!  Yeeeaaah!..”
G|---------------------------------------------------------------|
D|---------------------------------------------------------------|
A|-3-3-3-3---------5-5-5-5---------------------------------------|
E|---------3-3-3-3---------5-5-5-5-------------------------------|
  “Yeah! Yeah!”
G|---------------------------------------------------------------|
D|---------------------------------------------------------------|
A|-3-3-3-3---------5---------------------------------------------|
E|---------3-3-3-3-----------------------------------------------|


End – (2 ½  bars)
“And let me get on with my Life”
(1 bar rest)
                 > >
G|-9-7----------------------------------------------------------|
D|-----9-7-5----------------------------------------------------|
A|-----------7-5-7-7--------------------------------------------|
E|---------------0-0--------------------------------------------|



Alternate Bridge – (8 bars)
There's 2 ways to play this but I couldn't be bothered to tab it with the main thing
(Lead notes from the chorus)
“It's always”
G|-------------------------------------------------------------------|
D|---5-6-------------------------------------------------------------|
A|-7-----------------------------------------------------------------|
E|-------------------------------------------------------------------|
“One thing or the other, why should I even bother?”
G|---------------------------------------------------------------|
D|-7-7-7-5-7-7-7-5-7-7-7-5-7-7-7-5-------------------------------|
A|---------------------------------------------------------------|
E|---------------------------------------------------------------|
                “…...Turn it the”
G|---------------------------------------------------------------|
D|--------5-5----------5---5-6-----------------------------------|
A|-7-7-----------7-7-----7---------------------------------------|
E|---------------------------------------------------------------|
“other way around, get your feet back on the ground”
G|---------------------------------------------------------------|
D|-7-7-7-5-7-7-7-5-7-7-7-5-7-7-7-5-------------------------------|
A|---------------------------------------------------------------|
E|---------------------------------------------------------------|
“Just let me get on with my, just let me get on with my life!”
G|-5-5-5---5-5-5-6-7-7-7-5-7-7-7-7-------------------------------|
D|-------7-------------------------------------------------------|
A|----------------------------------7~~~-------------------------|
E|---------------------------------------------------------------|

That's the tab and the alternate bridge. I can't personally find any mistakes but if you 
do let me know and I will make corrections if you're right. This is my first tab so if 
I've completely ballsed it up I do apologise, hope this helps!
Chunk

Tab Legend
> - Emphasise note
/ - Slide up
~ - Let ring

            
            
Suggest correction
Creating personal tab
Creating personal tab
You can edit any tab online and save it as your Personal.

You can edit, replace or remove any tab part or add personal notes – all changes will be seen only by you.

Personal tabs can be accessed anytime from any device, even offline.
Learn more »
Give kudos to tab author, rate the tab!
1 2 3 4 5
comments
print report bad tab
1 comment total.
0 reply
Bob1010 10 Mar 18, 2013 11:41 AM

i think at the beginning you play 1010 not 1111

guest
You may want to rate the tab now too:
select rating
Wanna post a correction for this tab? Suggest correction