Oops, an error
Loading. Please wait.

Full Steam Spacemachine bass

version 1
version 1

Whole song

Interactive

5,356 views 12 this week
2 commentsread comments
1 2 3 4 5
x 9
add to favorites
×
Save as Personal and add changes to this tab that will be seen only by you. Learn more ›
×
You can save this tab as Personal to edit and correct it or add notes. All changes will be seen only by you. Learn more »
launch autoscroll
font size
0
reset
guitar tuner
edit
Autoscroll
slow
fast
+/-
esc
set tempo
stop
Author
Difficulty
Hey Guy, this is the Bass Tab to Full Steam Spacemachine.
It should be 100 % correct! If there is a mistake, (i hope not :D) then send me a message....

Royal Republic - Full Steam Spacemachine

Intro Riff/Chorus 2x
G|---------------------|------------------11-|---------------------|-----------------------|
D|---11---11---11---11-|---11---11---11------|---11---11---11---11-|-----------------------|
A|---------------------|----------------9----|---------------------|----9-10-11-10-9-------|
E|-9----9----9----9----|-9----9----7---------|-9----9----9----9----|-12--------------12-11-|

Verse
G|---------------------|------------------11-|---------------------|---11---11---------|
D|---11---11---11---11-|---11---11---11------|---11---11---11---11-|-------------9---9-|
A|---------------------|----------------9----|---------------------|-9----9------------|
E|-9----9----9----9----|-9----9----7---------|-9----9----9----9----|-----------7---7---|

G|---------------------|------------------11-|---------------------|-----------------------|
D|---11---11---11---11-|---11---11---11------|---11---11---11---11-|-----------------------|
A|---------------------|----------------9----|---------------------|----9-10-11-10-9-------| 
E|-9----9----9----9----|-9----9----7---------|-9----9----9----9----|-12--------------12-11-|

Pre-Chorus
G|-------------------------|-----------------------|------------------------|
D|-------------------------|-----------------------|------------------------|
A|-------------------------|-9-9-11-11-------------|------------------------|
E|-12-12-12-12-12-12-12-12-|-----------12-12-11-11-|-11-11-11-11-11-11------|

Chorus 3x
Verse
Pre-Chorus
Chorus 2x

Bridge
G|---11---11---11---11-|---------------------|---11---11---11---11-|------------------------|
D|---------------------|---11---11---11---11-|---------------------|---11----13----14----15-|
A|-9----9----9----9----|---------------------|-9----9----9----9----|------------------------|
E|---------------------|-9----9----9----9----|---------------------|-9----11----12----13----|

                                          You can use the octave or play only on the E-String
G|---11---11---11---11-|------------------------|-----------------|-----------------|
D|---------------------|---11----13----14----15-|--(7)-(7)-(7)-(7)|-----------------|
A|-9----9----9----9----|------------------------|-----------------|-----------------|
E|---------------------|-9----11----12----13----|-5-5-5-5-5-5-5-5-|-4-4-4-4-4-4-4-4-|

Pause

G|-----------------------|
D|-----------------------|
A|----9-10-11-10-9-------|
E|-12--------------12-11-|

End Riff 
G|-----------------|-----------------|-----------------|-----------------------|
D|-----------------|-----------------|-----------------|-----------------------|
A|-----------------|-------------9-9-|-----------------|----9-10-11-10-9-------| 6x
E|-9-9-9-9-9-9-9-9-|-9-9-9-9-7-7-----|-9-9-9-9-9-9-9-9-|-12--------------12-11-| 

End on
G|-----------------------|
D|-----------------------|
A|----9-10-11-10-9-------|
E|-12--------------12-11-|

Enjoy! :)

            
            
Suggest correction
Creating personal tab
Creating personal tab
You can edit any tab online and save it as your Personal.

You can edit, replace or remove any tab part or add personal notes – all changes will be seen only by you.

Personal tabs can be accessed anytime from any device, even offline.
Learn more »
comments
print report bad tab
2 comments total.
0 reply
TheMasterofP 663 Nov 06, 2011 08:22 PM

Sorry, i made a mistake! :D
At the Pre-Chorus, the last note is:

E|-4-4-4-4-4-4------|

But the rest is okay! :)

0 reply
dende24 10 Dec 01, 2012 02:59 AM

I think the last beat of the Pre-Chorus is a break.

The End-Riff are only quarter notes ande the "End on" must play two times.

regards
dende

guest
You may want to rate the tab now too:
select rating
Wanna post a correction for this tab? Suggest correction