Oops, an error
Loading. Please wait.

Presidents Daughter Bass Tab

985 views 1 this week
no commentswrite comment
1 2 3 4 5
2 more votes to show rating
add to favorites
launch autoscroll
font size
0
reset
guitar tuner
Autoscroll
slow
fast
+/-
esc
set tempo
stop
Help us to improve Ultimate-Guitar.com Take our survey!
×
Author
Difficulty
Tuning
novice
D# G# C# F# A# D#
Artist: Royal Republic 
Album: We Are the Royal 
Song: President's Daughter 

Main Riff
Gb|------------------------------------------------------------| 
Db|--------------------------------------------0h2-2-----------| 
Ab|-2-3--4---------2-3-4------0--2-3-4---------------4-3-2-----| 
Eb|--------0-2-0-2-------0-2-----------0-2-0-2-------------0-2-| 

Verse: 
Gb|---------------| 
Db|---------------| 
Ab|-----5-5-------| 
Eb|-2-2-----5\----| 

Bridge: 
Gb|-------------------------------| 
Db|-----------7-7-7-7-7-7-7-7-7-7-| 
Ab|-----5-5-----------------------| 
Eb|-2-2-----5---------------------| 

Chourus
Gb|------------------------------------------------------------| 
Db|--------------------------------------------0h2-2-----------| 
Ab|-2-3--4---------2-3-4------0--2-3-4---------------4-3-2-----| 
Eb|--------0-2-0-2-------0-2-----------0-2-0-2-------------0-2-| 

Verse: 
Gb|---------------| 
Db|---------------| 
Ab|-----5-5-------| 
Eb|-2-2-----5\----| 

Bridge: 
Gb|-------------------------------| 
Db|-----------7-7-7-7-7-7-7-7-7-7-| 
Ab|-----5-5-----------------------| 
Eb|-2-2-----5---------------------| 

Chourus
Gb|------------------------------------------------------------| 
Db|--------------------------------------------0h2-2-----------| 
Ab|-2-3--4---------2-3-4------0--2-3-4---------------4-3-2-----| 
Eb|--------0-2-0-2-------0-2-----------0-2-0-2-------------0-2-| 

Intermission
Gb|--------------------------------| 
Db|------------------------0-0-----| 
Ab|-0-2-2-0-2-2-0-2--0-2-0-----2-2-| x2 
Eb|--------------------------------| 

Gb|--------------------------------| 
Db|------------------------2-2-----| 
Ab|-2-4-4-2-4-4-2-4--2-4-2-----4-4-| 
Eb|--------------------------------| x2 

Verse: 
Gb|---------------| 
Db|---------------| 
Ab|-----5-5-------| 
Eb|-2-2-----5\----|  

Chourus
Gb|------------------------------------------------------------| 
Db|--------------------------------------------0h2-2-----------| 
Ab|-2-3--4---------2-3-4------0--2-3-4---------------4-3-2-----| 
Eb|--------0-2-0-2-------0-2-----------0-2-0-2-------------0-2-|  

Outro: 
Gb|---------------| 
Db|---------------| 
Ab|-----5-5-------| 
Eb|-2-2-----5-5---|
Suggest correction
Give kudos to tab author, rate the tab!
1 2 3 4 5
comments
print report bad tab
guest
You may want to rate the tab now too:
select rating
Wanna post a correction for this tab? Suggest correction