Oops, an error
Loading. Please wait.

Presidents Daughter Tab

version 1
version 1

Whole song

5,591 views 15 this week
no commentswrite comment
1 2 3 4 5
excellent!
x 8
add to favorites
launch autoscroll
font size
0
reset
how to read this tab
guitar tuner
Tab Pro tools
  • play this tab
  • loop segment
  • change instrument
  • show fretboard
  • metronome
×
Best way to learn
"Presidents Daughter"
Autoscroll
slow
fast
+/-
esc
set tempo
stop
--------------------------------------
ROYAL REPUBLIC - PRESIDENT'S DAUGHTER
--------------------------------------

h   - hammer on 
/   - slide up
\   - slide down
~   - vibrato 
x   - play 'note' with heavy muting
p.m - Palm mute

TUNE 1/2 step DOWN

INTRO/CHORUS RIFF
E|--------------------------------|-----------------------------------|
B|--------------------------------|-----------------------------4-2---|
G|-----------------------------2--|-----------------------------4-2---|
D|-----------------------------2--|---------------0h2~--2-------------|  REPEAT
A|-2-3-4---------2~--3-4-------0--|-2-3-4-----------------4-3-2-------|
E|-------0-2-0-2---------0-2-0----|-------0-2-0-2---------------------|

VERSE RIFF A
E|-------------X-X-X-X-X-X-X-X-X-X-|
B|-------------X-X-X-X-X-X-X-X-X-X-|
G|-----7-7-----X-X-X-X-X-X-X-X-X-X-|
D|-4-4-7-7-7-7-X-X-X-X-X-X-X-X-X-X-| REPEAT 4 TIMES
A|-4-4-5-5-7-7---------------------|
E|-2-2-----5-5---------------------|

VERSE RIFF B
E|---------------------------------|
B|---------------------------------|
G|-----7-7-------------------------|
D|-4-4-7-7-7-7-7-7-7-7-7-7-7-7-7-7-| REPEAT 4 TIMES w/ BREAK @ 4th repeat.
A|-4-4-5-5-7-7-0-0-0-0-0-0-0-0-0-0-|
E|-2-2-----5-5---------------------|

CHORUS
VERSE A + B
CHORUS

BRIDGE
E|-------|---------------------------------|---------------------------------|
B|-------|---------------------------------|---------------------------------|
G|-------|---------------------------------|---------------------------------|
D|-------|---------------------------------|---------------------------------|
A|-------|-------------------------5-5-----|-------------------------5-5-----|
E|-0-1-2-|-5-7-7-5-7-0-5-7-0-5-7-0-----5-5-|-5-7-7-5-7-0-5-7-0-5-7-0-----7-7-|

E|---------------------------------|---------------------------------|
B|---------------------------------|---------------------------------|
G|-4-6-6-4-6---4-6---4-6---9-9-4-4-|-4-6-6-4-6---4-6---4-6---9-9-4-4-|
D|-4-6-6-4-6---4-6---4-6---9-9-4-4-|-4-6-6-4-6---4-6---4-6---9-9-4-4-|
A|-2-4-4-2-4---2-4---2-4---7-7-2-2-|-2-4-4-2-4---2-4---2-4---7-7-2-2-|
E|-----------0-----0-----0---------|-----------0-----0-----0---------|
            p.m   p.m   p.m                   p.m   p.m   p.m

VERSE RIFF A
GUITAR SOLO W/ WAH-PEDAL:
E|----------------------------------------------|
B|------------------------------------------14\-|
G|------------------------------------------14\-|
D|------------------------------------------14\-|
A|-14-15-16-------------14~--15-16--------------|
E|----------12-14-12-14------------12-14-12-----|

E|-------------------------------------------------|
B|------------------------------------------16-14\-|
G|------------------------------------------16-14\-|
D|----------------------12h14~--14----------16-14\-|     REPEAT 4 TIMES
A|-14-15-16------------------------16-15-14--------|
E|----------12-14-12-14----------------------------|

END:
E|---------------------------------|
B|---------------------------------|
G|-----7-7-------------------------|
D|-4-4-7-7-7-7---------------------| 
A|-4-4-5-5-7-7---------------------|
E|-2-2-----5-5---------------------|
comments
print report bad tab
I want to post or [tab]
guest
You may want to rate the tab now too:
select rating
Please do not post tabs as comments. Select "correction" instead!