Oops, an error
Loading. Please wait.

Punch Drunk Love Bass Tab

7 views 1 this week
no commentswrite comment
1 2 3 4 5
3 more votes to show rating
add to favorites
launch autoscroll
font size
0
reset
guitar tuner
Autoscroll
slow
fast
+/-
esc
set tempo
stop
Help us to improve Ultimate-Guitar.com Take our survey!
×
Author
Difficulty
novice
[Intro]

G|--4-4-4-4-4-4-4-4-4-4-4-------4-4-4-4-4-4-4-------------------4-4-4-4-4-4-4--|
D|-----------------------------------------------------------------------------|
A|----------------------------------------------5-5-5-5-5-5-5------------------|
E|-----------------------------------------------------------------------------|

[Verse]

G|--------------------------------------------------------------------------------------------------|
D|--------------------------------------------------------------------------------------------------|
A|-2-2-2-2-2-2-2-2-2-2-2-2-2-2-2-2-2-2-2-2-2----5-5-5-5-5-5-5-5-5-5-5-5---2-2-2-2-2-2-2-2-2-2-2-2---|
E|--------------------------------------------------------------------------------------------------|


[Chorus]

G|----------------------------------------------------------------------------------------------|
D|-5--5--5--5--2--2--2--2-------------------------5--5--5--5--2--2--2--2------------------------|
A|-------------------------2--2--2--2--5--5--5--5------------------------2--2--2--2--5--5--5--5-|
E|----------------------------------------------------------------------------------------------|

G|-------------------------|
D|-5--5--5--5--2--2--2--2--|
A|-------------------------|
E|-------------------------|

G|--4-4-4-4-4-4-4-4-4-4-4-------4-4-4-4-4-4-4-------------------4-4-4-4-4-4-4--|
D|-----------------------------------------------------------------------------|
A|----------------------------------------------5-5-5-5-5-5-5------------------|
E|-----------------------------------------------------------------------------|

[Verse]

G|--------------------------------------------------------------------------------------------------|
D|--------------------------------------------------------------------------------------------------|
A|-2-2-2-2-2-2-2-2-2-2-2-2-2-2-2-2-2-2-2-2-2----5-5-5-5-5-5-5-5-5-5-5-5---2-2-2-2-2-2-2-2-2-2-2-2---|
E|--------------------------------------------------------------------------------------------------|

[Chorus 2]

G|-----------------------------------------------------------------------------------------------|
D|-5--5--5--5--2--2--2--2--------------------------5--5--5--5--2--2--2--2------------------------|
A|-------------------------2--2--2--2--5--5--5--5--------------------------2--2--2--2--5--5--5--5|
E|-----------------------------------------------------------------------------------------------|

G|-----------------------------------------------------------------------------------------------|
D|-5--5--5--5--2--2--2--2--------------------------5--5--5--5--2--2--2--2------------------------|
A|-------------------------2--2--2--2--5--5--5--5--------------------------2--2--2--2--5--5--5--5|
E|-----------------------------------------------------------------------------------------------|

[Bridge]

G|-------------------------------------------------|
D|--2-2--5-5-5----------------2-2-2--5-5-5---------|
A|--------------2-2-2--5-5-5---------------2-2-----|
E|-------------------------------------------------| x2

G|--4-4-4-4-4-4-4-4-4-4-4-------4-4-4-4-4-4-4-------------------4-4-4-4-4-4-4--|
D|-----------------------------------------------------------------------------|
A|----------------------------------------------5-5-5-5-5-5-5------------------|
E|-----------------------------------------------------------------------------|

[Verse]

G|--------------------------------------------------------------------------------------------------|
D|--------------------------------------------------------------------------------------------------|
A|-2-2-2-2-2-2-2-2-2-2-2-2-2-2-2-2-2-2-2-2-2----5-5-5-5-5-5-5-5-5-5-5-5---2-2-2-2-2-2-2-2-2-2-2-2---|
E|--------------------------------------------------------------------------------------------------|

[Chorus]

G|-----------------------------------------------------------------------------------------------|
D|-5--5--5--5--2--2--2--2--------------------------5--5--5--5--2--2--2--2------------------------|
A|-------------------------2--2--2--2--5--5--5--5--------------------------2--2--2--2--5--5--5--5|
E|-----------------------------------------------------------------------------------------------|

G|-----------------------------------------------------------------------------------------------|
D|-5--5--5--5--2--2--2--2--------------------------5--5--5--5--2--2--2--2------------------------|
A|-------------------------2--2--2--2--5--5--5--5--------------------------2--2--2--2--5--5--5--5|
E|-----------------------------------------------------------------------------------------------|
Suggest correction
Give kudos to tab author, rate the tab!
1 2 3 4 5
comments
print report bad tab
guest
You may want to rate the tab now too:
select rating
Wanna post a correction for this tab? Suggest correction