Oops, an error
Loading. Please wait.

Save The Nation bass

version 1
version 1

Whole song

Interactive

850 views 1 this week
no commentswrite comment
1 2 3 4 5
2 more votes to show rating
add to favorites
×
Save as Personal and add changes to this tab that will be seen only by you. Learn more ›
×
You can save this tab as Personal to edit and correct it or add notes. All changes will be seen only by you. Learn more »
launch autoscroll
font size
0
reset
guitar tuner
edit
Autoscroll
slow
fast
+/-
esc
set tempo
stop
Author
Difficulty
This is the Bass Tab to Royal Republic 'Save The Nation'.
It's easy to learn. I hope, it's all correct. If there is a mistake, you can send me message! 
Have fun and DON'T FORGET TO RATE! ;)

Intro (0:15)
G|----------------|
D|----------------|
A|2-2-------------|
E|----------------|
  E E H.

Verse (0:26)
G|----------------|----------------|----------------|
D|----------------|----------------|----------------|
A|2-2-----2-2-----|2-2-----2-2-----|------------3-3-| 4x
E|----------------|----------------|0-0-0-3-3-3-----|
  E E Q   E E Q    E E Q   E E Q    E E E E E E E E

G|----------------|
D|----------------|
A|----------------|
E|-------------12/|
  H       Q   E E

Chorus Part 1(2x)
G|----------------|----------------|----------------|----------------|
D|----------------|----------------|----------------|----------------|
A|----------------|5-5-5-5-5-5-5-5-|----------------|7-7-7-7-7-7-7-7-| 
E|3-3-3-3-3-3-3-3-|----------------|5-5-5-5-5-5-5-5-|----------------|
  E E E E E E E E  E E E E E E E E  E E E E E E E E  E E E E E E E E 

G|----------------|----------------|
D|----------------|----------------|
A|----------------|----9-8-7-5-----|
E|7-7-7-7-7-7-7-7-|7-7---------7-5-|
  E E E E E E E E  E E E E E E E E  

Pause of 4 seconds

Verse                                1./2./3. time       4. time
G|----------------|----------------||-----------------| |----------------|
D|----------------|----------------||----------------*| |----------------|
A|2-2-----2-2-----|2-2-----2-2-----||------------3-3--| |----------------|
E|----------------|----------------||0-0-0-3-3-3-----*| |12/~~~~~~~~~~~~~|
  E E Q   E E Q    E E Q   E E Q    E E E E E E E E         F

Chorus Part 1 (2x)

Chorus Part 2
G|----------------|----------------|----------------|----------------|
D|----------------|----------------|----------------|----------------|
A|9-9-9-9-9-9-9-9-|5-5-5-5-5-5-5-5-|9-9-9-9-9-9-9-9-|5-5-5-5-5-5-5-5-| 
E|----------------|----------------|----------------|----------------|
  E E E E E E E E  E E E E E E E E  E E E E E E E E  E E E E E E E E

G|----------------|----------------|----------------|----------------|
D|----------------|----------------|----------------|----------------|
A|7-7-7-7-7-7-7-7-|7-7-7-7-7-7-7-7-|5~~~5~~~5~~~5~~~|5~~~5~~~5~~~5~~~| 
E|----------------|----------------|----------------|----------------|
  E E E E E E E E  E E E E E E E E  Q   Q   Q   Q    Q   Q   Q   Q

Bridge
G|----------------|----------------|----------------|----------------|
D|----------------|----------------|----------------|----------------|
A|7~~~~~~~~~~~~~~~|~~~~~~~~~~~~~~~~|~~~~~~~~~~~~~~~~|~~~~~~~~~~~~~~--|
E|----------------|----------------|----------------|--------------10|
  F                F                F                H.          E E

G|----------------|----------------|----------------|----------------|
D|----------------|----------------|----------------|----------------|
A|----------------|----------------|----------------|----------------| 
E|1212121212121212|1212121212121210|1212121212121210|1212121212121212|
  E E E E E E E E  E E E E E E E E  E E E E E E E E  E E E E E E E E

Pause of 4 seconds
Chorus Part 1 (3x)

Chorus Part 2 Variation
G|----------------|----------------|----------------|----------------|
D|----------------|----------------|----------------|----------------|
A|9-9-9-9-9-9-9-9-|5-5-5-5-5-5-5-5-|9-9-9-9-9-9-9-9-|5-5-5-5-5-5-5-5-| 
E|----------------|----------------|----------------|----------------|
  E E E E E E E E  E E E E E E E E  E E E E E E E E  E E E E E E E E

G|----------------|----------------|----------------|----------------|
D|----------------|----------------|----------------|----------------|
A|7-7-7-7-7-7-7-7-|7-7-7-7-7-7-7-7-|5~~~5~~~5~~~5~~~|5~~~5~~~5~~~5~~~| 
E|----------------|----------------|----------------|----------------|
  E E E E E E E E  E E E E E E E E  Q   Q   Q   Q    Q   Q   Q   Q

G|----------------|----------------|----------------|----------------|
D|----------------|----------------|----------------|----------------|
A|5~~~5~~~5~~~5~~~|5~~~5~~~5~~~5~~~|~~~~~~~~~~~~~~~~|~~~~~~~~~~~~~~~~|
E|----------------|----------------|----------------|----------------|
  Q   Q   Q   Q    Q   Q   Q   Q    F                F

Outro
G|----------------|----------------|
D|----------------|----------------|
A|------------3-3-|2-2-2~~~/-------|
E|0-0-0-3-3-3-----|----------------|
  H       Q   E E  E E Q

F = Full note
H = Half note
Q = Quarter note
E = Eighth note
S = Sixteenth note
. = makes the note a half longer
\ = Slide up
/ = Slide down
h = Hammer-on
p = Pull-off
b = Bending
X = Mute note


            
            
Suggest correction
Creating personal tab
Creating personal tab
You can edit any tab online and save it as your Personal.

You can edit, replace or remove any tab part or add personal notes – all changes will be seen only by you.

Personal tabs can be accessed anytime from any device, even offline.
Learn more »
Give kudos to tab author, rate the tab!
1 2 3 4 5
comments
print report bad tab
guest
You may want to rate the tab now too:
select rating
Wanna post a correction for this tab? Suggest correction