Oops, an error
Loading. Please wait.

Tommy-Gun Tab

version 2
version 2

Whole song

Interactive

43,777 views 96 this week
no commentswrite comment
1 2 3 4 5
excellent!
x 14
add to favorites
launch autoscroll
font size
0
reset
how to read this tab
guitar tuner
Autoscroll
slow
fast
+/-
esc
set tempo
stop
Help us to improve Ultimate-Guitar.com Take our survey!
×
Author
Difficulty
Bjuv0 191
intermediate
Tommy-Gun by Royal Republic

Originally posted on http://www.ultimate-guitar.com/

Standard tuning


[INTRO]

e|-----------------|-----------------|-----------------|-----------------|
B|-----------------|-----------------|-----------------|-----------------|
G|-----------------|-----------------|-----------------|-----------------|
D|-----------------|-----------------|-----------------|-----------------|
A|-----------------|-----------------|-----------------|-----------------|
E|-----------------|-----------------|-----------------|-----------------|

e|--------------------|-------------------|--------------------|-------------|
B|--------------------|-------------------|--------------------|----8-x-8-6--|
G|---10-9-10-9-10-6---|---10-9-10-6---6---|---10-9-10-9-10-6---|----8-x-8-6--|
D|------------------8-|-------------8-----|------------------8-|-------------|
A|--------------------|-------------------|--------------------|-------------|
E|--------------------|-------------------|--------------------|-------------|

[VERSE]

I guilty stand before you, I know I misbehaved, I never meant to hurt you
e|--------------------|-------------------|--------------------|-------------|
B|--------------------|-------------------|--------------------|----8-x-8-6--|
G|---10-9-10-9-10-6---|---10-9-10-6---6---|---10-9-10-9-10-6---|----8-x-8-6--|
D|------------------8-|-------------8-----|------------------8-|-------------|
A|--------------------|-------------------|--------------------|-------------|
E|--------------------|-------------------|--------------------|-------------|

I humbly beg forgiveness, Hope that my soul be saved, And if I had a final wish pretty 
I would only ask this
e|--------------------|-------------------|--------------------|-----------------|----------------|
B|--------------------|-------------------|--------------------|--8-x-8-x-8-x-8--|--8-x-8-x-8-----|
G|---10-9-10-9-10-6---|---10-9-10-6---6---|---10-9-10-9-10-6---|--8-x-8-x-8-x-8--|--8-x-8-x-8-----|
D|------------------8-|-------------8-----|------------------8-|-----------------|----------------|
A|--------------------|-------------------|--------------------|-----------------|----------------|
E|--------------------|-------------------|--------------------|-----------------|----------------|

[CHORUS]

I want you to do me with a tommy-gun baby, With a tommy-gun baby do me, GUN-TOMMY
e|-------------|-------------|-------------|--------------|
B|-------------|-------------|-------------|-----8-x-8-6--|
G|-------------|-------------|-------------|-----8-x-8-6--|
D|-------6-----|--------8----|--------8----|--------------|
A|--8----4--8--|--4--6--6--x-|--4--6--6--x-|-8------------|
E|--6-------6--|--2--4-----x-|--2--4-----x-|-6------------|

If you have to kill me use a tommy-gun baby, Use a tommy-gun baby do me, GUN-TOMMY
e|-------------|-------------|-------------|--------------|
B|-------------|-------------|-------------|-----8-x-8-6--|
G|-------------|-------------|-------------|-----8-x-8-6--|
D|-------6-----|--------8----|--------8----|--------------|
A|--8----4--8--|--4--6--6--x-|--4--6--6--x-|-8------------|
E|--6-------6--|--2--4-----x-|--2--4-----x-|-6------------|

[INTERLUDE]

e|---------------------|-----------------|-----------------|-------------|
B|-------------9-------|-----------------|-----------------|-6^----------|
G|-10-10-8-10---10-8-6-|-8-8-10--8-6-----|-8-8-10--8-6-----|-6^----------|
D|---------------------|-------------6-8-|-------------6-8-|-------------|
A|---------------------|-----------------|-----------------|-------------|
E|---------------------|-----------------|-----------------|-------------|

[VERSE]

There ain't no use appealing, Your justice will prevail, This time I must be punished
e|--------------------|-------------------|--------------------|-------------|
B|--------------------|-------------------|--------------------|----8-x-8-6--|
G|---10-9-10-9-10-6---|---10-9-10-6---6---|---10-9-10-9-10-6---|----8-x-8-6--|
D|------------------8-|-------------8-----|------------------8-|-------------|
A|--------------------|-------------------|--------------------|-------------|
E|--------------------|-------------------|--------------------|-------------|

No lawyer no attourney, No chance of breaking bail, So won't you grant this final wish 
Miss? Won't you save a last kiss?
e|--------------------|-------------------|--------------------|-----------------|----------------|
B|--------------------|-------------------|--------------------|--8-x-8-x-8-x-8--|--8-x-8-x-8-----|
G|---10-9-10-9-10-6---|---10-9-10-6---6---|---10-9-10-9-10-6---|--8-x-8-x-8-x-8--|--8-x-8-x-8-----|
D|------------------8-|-------------8-----|------------------8-|-----------------|----------------|
A|--------------------|-------------------|--------------------|-----------------|----------------|
E|--------------------|-------------------|--------------------|-----------------|----------------|

[CHORUS]

I want you to do me with a tommy-gun baby, With a tommy-gun baby do me, GUN-TOMMY
e|-------------|-------------|-------------|--------------|
B|-------------|-------------|-------------|-----8-x-8-6--|
G|-------------|-------------|-------------|-----8-x-8-6--|
D|-------6-----|--------8----|--------8----|--------------|
A|--8----4--8--|--4--6--6--x-|--4--6--6--x-|-8------------|
E|--6-------6--|--2--4-----x-|--2--4-----x-|-6------------|

If you have to kill me use a tommy-gun baby, Use a tommy-gun baby do me, GUN-TOMMY
e|-------------|-------------|-------------|--------------|
B|-------------|-------------|-------------|-----8-x-8-6--|
G|-------------|-------------|-------------|-----8-x-8-6--|
D|-------6-----|--------8----|--------8----|--------------|
A|--8----4--8--|--4--6--6--x-|--4--6--6--x-|-8------------|
E|--6-------6--|--2--4-----x-|--2--4-----x-|-6------------|

I want you to do me with a tommy-gun baby, If you have to kill me use a tommy-gun baby
e|-----------------|-----------------|-----------------|-----------------|
B|-----------------|-----------------|-----------------|-----------------|
G|-----------------|-----------------|-----------------|-----------------|
D|-6-6-6-6-6-6-6-6-|-6-6-6-6-6-6-6-6-|-8-8-8-8-8-8-8-8-|-8-8-8-8-8-8-8-8-|
A|-4-4-4-4-4-4-4-4-|-4-4-4-4-4-4-4-4-|-6-6-6-6-6-6-6-6-|-6-6-6-6-6-6-6-6-|
E|-----------------|-----------------|-----------------|-----------------|

[INTERLUDE]

                         Gun-tommy                           Gun-tommy
e|-----------------|-----------------|-----------------|-----------------|
B|-----------------|-----------------|-----------------|-----------------|
G|-----------------|-----------------|-----------------|-----------------|
D|-----8-------8---|-----8-------8---|-----8-------8---|-----8-------8---|
A|-----------------|-----------------|-----------------|-----------------|
E|-6-------6-------|-6-------6-------|-6-------6-------|-6-------6-------|

                         Gun-tommy                 Aaaah shoot me...
e|-----------------|-----------------|-----------------|-----------------|
B|-----------------|-----------------|-----------------|-----------------|
G|-----------------|-----------------|-----------------|-----------------|
D|-----8-------8---|-----8-------8---|-----8-------8---|-----------------|
A|-----------------|-----------------|-----------------|-----------------|
E|-6-------6-------|-6-------6-------|-6-------6-------|-6---------------|

[Two guitars]
| e|---------------------|-----------------|-----------------|-------------|
| B|-------------9-------|-----------------|-----------------|----8-x-8-6--|
| G|-10-10-8-10---10-8-6-|-8-8-10--8-6-----|-8-8-10--8-6-----|----8-x-8-6--|
| D|---------------------|-------------6-8-|-------------6-8-|-------------|
| A|---------------------|-----------------|-----------------|-------------|
| E|---------------------|-----------------|-----------------|-------------|
|
| e|-------------|-------------|-------------|--------------|
| B|-------------|-------------|-------------|-----8-x-8-6--|
| G|-------------|-------------|-------------|-----8-x-8-6--|
| D|-------6-----|--------8----|--------8----|--------------|
| A|--8----4--8--|--4--6--6--x-|--4--6--6--x-|-8------------|
| E|--6-------6--|--2--4-----x-|--2--4-----x-|-6------------|

[Two guitars]
| e|---------------------|-----------------|-----------------|-------------|
| B|-------------9-------|-----------------|-----------------|----8-x-8-6--|
| G|-10-10-8-10---10-8-6-|-8-8-10--8-6-----|-8-8-10--8-6-----|----8-x-8-6--|
| D|---------------------|-------------6-8-|-------------6-8-|-------------|
| A|---------------------|-----------------|-----------------|-------------|
| E|---------------------|-----------------|-----------------|-------------|
|
| e|-------------|-------------|-------------|--------------|
| B|-------------|-------------|-------------|-----8-x-8-6--|
| G|-------------|-------------|-------------|-----8-x-8-6--|
| D|-------6-----|--------8----|--------8----|--------------|
| A|--8----4--8--|--4--6--6--x-|--4--6--6--x-|-8------------|
| E|--6-------6--|--2--4-----x-|--2--4-----x-|-6------------|


e|-----------------|-----------------|-----------------|-----------------|
B|-----------------|-----------------|-----------------|-----------------|
G|-----------------|-----------------|-----------------|-----------------|
D|-----------------|-----------------|-----------------|-----------------|
A|-----------------|-----------------|-----------------|-----------------|
E|-6~--------------|-----------------|-----------------|-----------------|

[VERSE]

I guilty stand before you, I know I misbehaved, I never meant to hurt you
e|-----------------|-----------------|-----------------|-----------------|
B|-----------------|-----------------|-----------------|-----------------|
G|-----------------|-----------------|-----------------|-----------------|
D|-----------------|-----------------|-----------------|-----------------|
A|-----------------|-----------------|-----------------|-----------------|
E|-----------------|-----------------|-----------------|-----------------|

I humbly beg forgiveness, Hope that my soul be saved, But if I had a final wish...  I 
only ask this
e|-----------------|-----------------|-----------------|-----------------|-----------------|
B|-----------------|-----------------|-----------------|-----------------|-----------------|
G|-----------------|-----------------|-----------------|-----------------|-----------------|
D|-----------------|-----------------|-----------------|-----------------|-----------------|
A|-----------------|-----------------|-----------------|-----------------|-----------------|
E|-----------------|-----------------|-----------------|-----------------|-----------------|

[CHORUS]

I want you to do me with a tommy-gun baby, With a tommy-gun baby do me, GUN-TOMMY
e|-------------|-------------|-------------|--------------|
B|-------------|-------------|-------------|-----8-x-8-6--|
G|-------------|-------------|-------------|-----8-x-8-6--|
D|-------6-----|--------8----|--------8----|--------------|
A|--8----4--8--|--4--6--6--x-|--4--6--6--x-|-8------------|
E|--6-------6--|--2--4-----x-|--2--4-----x-|-6------------|

If you have to kill me use a tommy-gun baby, Use a tommy-gun baby do me, GUN-TOMMY
e|-------------|-------------|-------------|--------------|
B|-------------|-------------|-------------|-----8-x-8-6--|
G|-------------|-------------|-------------|-----8-x-8-6--|
D|-------6-----|--------8----|--------8----|--------------|
A|--8----4--8--|--4--6--6--x-|--4--6--6--x-|-8------------|
E|--6-------6--|--2--4-----x-|--2--4-----x-|-6------------|

I want you to do me with a tommy-gun baby, If you have to kill me use a tommy-gun baby,  
       GUN-TOMMY!
e|-----------------|-----------------|-----------------|-----------------|-----------------|
B|-----------------|-----------------|-----------------|-----------------|-----------------|
G|-----------------|-----------------|-----------------|-----------------|-----------------|
D|-6-6-6-6-6-6-6-6-|-6-6-6-6-6-6-6-6-|-8-8-8-8-8-8-8-8-|-8-8-8-8-8-8-8-8-|-8-8-8-8-8-8-8-8-|
A|-4-4-4-4-4-4-4-4-|-4-4-4-4-4-4-4-4-|-6-6-6-6-6-6-6-6-|-6-6-6-6-6-6-6-6-|-6-6-6-6-6-6-6-6-|
E|-----------------|-----------------|-----------------|-----------------|-----------------|

--------------|
-----8-x-8-6--|
-----8-x-8-6--|
--------------|
--------------|
--------------|


That's it, enjoy !
Suggest correction new What's this?
You can suggest a correction to this tab. Community and Mods will review your correction and vote to approve or reject it.
comments
print report bad tab
guest
You may want to rate the tab now too:
select rating
Please do not post tabs as comments. Select "correction" instead!