Oops, an error
Loading. Please wait.

Underwear Bass Tab

version 1
version 1

Whole song

Interactive

4,047 views 30 this week
no commentswrite comment
1 2 3 4 5
accurate
x 3
add to favorites
launch autoscroll
font size
0
reset
guitar tuner
Tab Pro tools
  • play this tab
  • loop segment
  • change instrument
  • show fretboard
  • metronome
×
Best way to learn
"Underwear"
Autoscroll
slow
fast
+/-
esc
set tempo
stop
Contributor
Difficulty
intermediate
Band:   Royal Republic
Song:   Underwear
Tuning: Standard

I haven't tabbed anything in ages so apologies if there are a few mistakes.
This sounds right to me and is very fun to play. Enjoy!


Intro
G|--------------|         \
D|88-10-11---686|          \
A|--------------|           \
E|--------------| x2         \
                              \ Play
G|-------------6|888886--|    / 2 times            
D|88-10-11---68-|------86|   /     
A|--------------|--------|  /
E|--------------|--------| /


Verse #1
G|--------|--------|--------|--------|
D|88------|--------|44------|--------|
A|--------|44------|--------|66------|
E|--------|--------|--------|--------| x2

G|--------|--------|--------|--------|
D|88------|--------|44---44-|-------6|
A|-----686|44-----4|-------4|66---66-|
E|--------|------6-|--------|--------|

G|--------|--------|--------|--------|
D|88------|--------|--------|--------|
A|-----686|44-----4|6-------|--------|
E|--------|------6-|--------|--------|


Chorus #1
G|--------|--------|--------|--------|
D|--------|--------|--------|--------|
A|--------|--------|--------|--------|
E|66666666|66666666|66666666|66666666|


G|--------|--------|--------|--------|
D|44444444|--------|--------|--------|
A|--------|66666666|44444444|6-------|
E|--------|--------|--------|--------|



Bridge #1 - Same as Intro (play through twice again)


Verse #2 - Same as Verse #1


Chorus #2
G|--------|--------|--------|--------|--------|--------|
D|--------|--------|--------|--------|44444444|--------|
A|--------|--------|--------|--------|--------|66666666|
E|66666666|66666666|66666666|66666666|--------|--------|


G|--------|--------|--------|--------|--------|--------|
D|--------|--------|--------|--------|44444444|--------|
A|--------|--------|--------|--8-686-|--------|66666666|
E|66666666|66666666|66666666|66-6---9|--------|--------|


Bridge
G|--------|--------|--------|--------|
D|4-4-4-4-|--------|8-8-8-8-|--------|
A|--------|6-6-6-6-|--------|4-4-4-4-|
E|--------|--------|--------|--------|

G|--------|--------|------------|/8(r)--6(r)----|
D|4-4-4-4-|--------|8(r)--6(r)--|---------------|
A|--------|6-6-6-6-|------------|---------------|
E|--------|--------|------------|---------------|

G|--------|--------|--------|--------|--------|--------|
D|4-4-4-4-|--------|8-8-8-8-|--------|4-4-4-4-|--------|
A|--------|6-6-6-6-|--------|4-4-4-4-|--------|6-6-6-6-|
E|--------|--------|--------|--------|--------|--------|


Rest ("We can see your underwear...") for 6 bars

Chorus #3
G|--------|--------|--------|--------|--------|--------|
D|--------|--------|--------|--8-----|44444444|--------|
A|--------|--------|--------|-8-8986-|--------|66666666|
E|66666666|66666666|66666666|6------8|--------|--------|


Ending
G|--------|--------|
D|--------|--------|
A|--------|6---4(r)|
E|6---4---|--------|
comments
We did not receive enough feedback on this tab! Please rate:
print report bad tab
1 2 3 4 5
I want to post or [tab]
guest
You may want to rate the tab now too:
select rating
Please do not post tabs as comments. Select "correction" instead!