Oops, an error
Loading. Please wait.

Kangaroo Pocket tab

1,589 views 18 this week
1 commentread comment
1 2 3 4 5
x 7
add to favorites
×
Save as Personal and add changes to this tab that will be seen only by you. Learn more ›
×
You can save this tab as Personal to edit and correct it or add notes. All changes will be seen only by you. Learn more »
launch autoscroll
font size
0
reset
how to read this tab
guitar tuner
edit
Autoscroll
slow
fast
+/-
esc
set tempo
stop
[Intro]

D#|---------------------------------------------------------------------|
A#|---------------------------------------------------------------------|
F#|-------6^------6^------6^-----6^-------6^------6^------6^------6^----|
C#|---------------------------------------------------------------------|
G#|---------------------------------------------------------------------|
D#|--5-5----5-5-5---5-5-5---5-5-5------5-5--5-5-5----5-5-5---5-5-5----5-| X2

GUITAR 1:
D#|------------------------------------------------------------------------|
A#|------------------------------------------------------------------------|
F#|--------9-11------------------------------9-11--------------------------|
C#|---11-9------9-11-------7-7-6---6----11-9------9-11---------------------|
G#|-0------------------9-9------------0------------------9-9-7-7//12---12--|
D#|------------------------------------------------------------------------|

D#|---------------------------------------------------------------------------|
A#|----------------------------9-9-7-5----------------------------------------|
F#|--------9-11-4-6--------6-6-9-9-7-6---------9-11---------------------------|
C#|---11-9-------------7-7-7-7------------11-9------9-11----------------------|
G#|-0------------------9-9--------------0------------------9//7-7//5--4b5br4--|
D#|---------------------------------------------------------------------------|

D#|---------------------------------------------------------------------|
A#|---------------------------------------------------------------------|
F#|-------6^------6^------6^-----6^-------6^------6^------6^------6^----|
C#|---------------------------------------------------------------------|
G#|---------------------------------------------------------------------|
D#|--5-5----5-5-5---5-5-5---5-5-5------5-5--5-5-5----5-5-5---5-5-5----5-| X2


[Verse]

GUITAR 1:
D#|-------------------------------------------------------------------------|
A#|-------------------------------------------------------------------------|
F#|-----6^------6^---------6^-------6^-------6^------6^------6^------6^-----|
C#|-------------------------------------------------------------------------|
G#|--------5-5-5-----5-5-5----5-5-5----5-------5-5-5----5-5-5---5-5-5---5---|
D#|-5-5----------------------------------5-5------------------------------5-| X2

GUITAR 2:
D#|------------------------------------------------------------------|
A#|------------------------------------------------------------------|
F#|--------7---7-7-7-7-7-7-7-7-7-7---------7---7-7-7-7-7-7-7-7-7-7---|
C#|-7-7-7--7---7-7-7-7-7-7-7-7-7-7-7-7-7-7-7---7-7-7-7-7-7-7-7-7-7-7-|
G#|-7-7-7--5---5-5-5-5-5-5-5-5-5-5-7-7-7-7-5---5-5-5-5-5-5-5-5-5-5-7-|
D#|-5-5-5--------------------------5-5-5-5-------------------------5-| X2

BASS:
the bassline does this here, giving it a different sound, but the guitar does not:
F#|-------------------------------------------------------------|
C#|-------------------------------------------------------------|
G#|--------5---5-5-5-5-5-5-5-5-5-5--------5---5-5-5-5-7-7-9--9--|
D#|-5-5-5--------------------------5-5-5------------------------|


BOTH GUITARS:

D#|-------------------------------------------------------------------|
A#|-------------------------------------------------------------------|
F#|-------------------------------------------------------------------|
C#|-------------------------------------------------------------------|
G#|--5-5-5-5-5-5-5-5-5-5-5-5-5-5-5-5-2-2-2-2-2-2-2-2-0-0-0-0-0-0-0-0--|
D#|-------------------------------------------------------------------|

D#|------------------------------------------------------|
A#|------------------------------------------------------|
F#|--11-11-11-11-11-13-13-13-13-14-14-14-14-14-14-14-14--|
C#|--0--0--0--0--0--0--0--0--0--0--0--0--0--0--0--0--0---|
G#|------------------------------------------------------|
D#|------------------------------------------------------|

D#|---------------------------------|
A#|---------------------------------|
F#|---------------------X--X--X--X--|
C#|---------------------X--X--X--X--|
G#|---------------------X--X--X--X--|
D#|--12--9~~b10br9~~----X--X--X--X--|


[Chorus]

D#|--------------------------------------------------------------------------------|
A#|--------------------------------------------------------------------------------|
F#|----------------7--7-7-7-7-7-7-7-X-------------7-7-7-X-4--4-4-4-4-4-4-4-4-4-4-4-|
C#|--7-7-X-4-4-4-X-7--7-7-7-7-7-7-7-X-7-7-7-4-4-X-7-7-7-X-4--4-4-4-4-4-4-4-4-4-4-4-|
G#|--7-7-X-4-4-4-X-5--5-5-5-5-5-5-5-X-7-7-7-4-4-X-5-5-5-X-2--2-2-2-2-2-2-2-2-2-2-2-|
D#|--5-5-X-2-2-2-X--------------------5-5-5-2-2-X----------------------------------|

D#|------------------------------------------------------------------------------|
A#|------------------------------------------------------------------------------|
F#|----------------7--7-7-7-7-7-7-7-7-7-7-----------------7-7-7-X----------------|
C#|--7-7-X-4-4-4-X-7--7-7-7-7-7-7-7-7-7-7-7-7-7-X-4-4-4-X-7-7-7-X----------------|
G#|--7-7-X-4-4-4-X-5--5-5-5-5-5-5-5-5-5-5-7-7-7-X-4-4-4-X-5-5-5-X--2--3--4-5--4--|
D#|--5-5-X-2-2-2-X------------------------5-5-5-X-2-2-2-X------------------------|


[Bridge]

GUITAR 1:
D#|--------------------------------------------------------------|
A#|--------------------------10h12p10-----------10h12p10---------|
F#|-------4------7-7-7---------------9h11p9-------------9h11p9---|
C#|-4-4-4-4------7-7-7-7-------------------11-----------------9--|
G#|-4-4-4-2------5-5-5-7-----------------------------------------|
D#|-2-2-2--------------5-----------------------------------------|

D#|------------------------------------------------|
A#|--------------------------10-9-10------9--10-9--|
F#|-------4------7-7-7-----------------------------|
C#|-4-4-4-4------7-7-7-7---------------------------|
G#|-4-4-4-2------5-5-5-7---------------------------|
D#|-2-2-2--------------5---------------------------|

D#|--------------------------------------------------------------|
A#|--------------------------10h12p10-----------10h12p10---------|
F#|-------4------7-7-7---------------9h11p9-------------9h11p9---|
C#|-4-4-4-4------7-7-7-7-------------------11-----------------9--|
G#|-4-4-4-2------5-5-5-7-----------------------------------------|
D#|-2-2-2--------------5-----------------------------------------|

D#|---------------------------9--------------------------|
A#|-----------------------------10-----------------------|
F#|-------4------7-7-7-------------11-9---7--9--9b11br9--|
C#|-4-4-4-4------7-7-7-7---------------------------------|
G#|-4-4-4-2------5-5-5-7---------------------------------|
D#|-2-2-2--------------5---------------------------------|

GUITAR 2:
D#|--------------------------------------------------------------|
A#|--------------------------------------------------------------|
F#|-------4------7-7-7--------9h11p9-------------9h11p9----------|
C#|-4-4-4-4------7-7-7-7-------------9h11p9-------------9h11p9---|
G#|-4-4-4-2------5-5-5-7-------------------12-----------------11-|
D#|-2-2-2--------------5-----------------------------------------|

D#|------------------------------------------------|
A#|------------------------------------------------|
F#|-------4------7-7-7-------11-9-11------9--11-9--|
C#|-4-4-4-4------7-7-7-7---------------------------|
G#|-4-4-4-2------5-5-5-7---------------------------|
D#|-2-2-2--------------5---------------------------|

D#|--------------------------------------------------------------|
A#|--------------------------------------------------------------|
F#|-------4------7-7-7--------9h11p9-------------9h11p9----------|
C#|-4-4-4-4------7-7-7-7-------------9h11p9-------------9h11p9---|
G#|-4-4-4-2------5-5-5-7-------------------12-----------------11-|
D#|-2-2-2--------------5-----------------------------------------|

D#|------------------------------------------------------|
A#|--------------------------10--------------------------|
F#|-------4------7-7-7----------11-----------------------|
C#|-4-4-4-4------7-7-7-7-----------12-11--9-11-11b12br11-|
G#|-4-4-4-2------5-5-5-7---------------------------------|
D#|-2-2-2--------------5---------------------------------|


[Outro]

GUITAR 2:
D#|------------------------------------------------------------------------------------------------|
A#|------------------------------------------------------------------------------------------------|
F#|------------------------------------------------------------------------------------------------|
C#|-11-11-11-11-11-11-11-11-11-11-11-11-11-11-11-11-11-11-11-11-11-11-11-11-11-11-11-11-11-11-11-9-|
G#|------------------------------------------------------------------------------------------------|
D#|------------------------------------------------------------------------------------------------|

D#|------------------------------------------------------------------------------------------------|
A#|------------------------------------------------------------------------------------------------|
F#|------------------------------------------------------------------------------------------------|
C#|-11-11-11-11-11-11-11-11-11-11-11-11-11-11-11-11-11-11-11-11-11-11-11-11-11-11-11-11-11-11-11-9-|
G#|------------------------------------------------------------------------------------------------|
D#|------------------------------------------------------------------------------------------------|

GUITAR 1:
[silence for one set then]
D#|----------------------------------------------------------------------------------------------------|
A#|----------------------------------------------------------------------------------------------------|
F#|----------------------------------------------------------------------------------------------------|
C#|----------------------------------------------------------------------------------------------------|
G#|-11-12-12-12-12-12-12-12-12-12-12-12-12-12-12-12-11-12-12-12-12-12-12-12-12-12-12-12-12-12-12-12-12-|
D#|----------------------------------------------------------------------------------------------------|

Order:
Intro
Verse
Chorus
Verse
Chorus
Solo
Outro
Chorus
Intro x2 with extended slow down


************************************

| h   Hammer-on
| p   Pull-off
| b   Bend
| br  Bend release
| /   Slide up
| ~   Vibrato
| x   Dead note

************************************

            
            
Suggest correction
Creating personal tab
Creating personal tab
You can edit any tab online and save it as your Personal.

You can edit, replace or remove any tab part or add personal notes – all changes will be seen only by you.

Personal tabs can be accessed anytime from any device, even offline.
Learn more »
comments
print report bad tab
1 comment total.
0 reply
psnotsure 1,683 Sep 02, 2016 01:37 PM

You're a good person

guest
You may want to rate the tab now too:
select rating
Wanna post a correction for this tab? Suggest correction