Oops, an error
Loading. Please wait.

Kossuth Utcn Bass Tab

256 views 1 this week
no commentswrite comment
1 2 3 4 5
please rate
add to favorites
launch autoscroll
font size
0
reset
guitar tuner
Autoscroll
slow
fast
+/-
esc
set tempo
stop
Help us to improve Ultimate-Guitar.com Take our survey!
×
Author
Difficulty
novice
-------------------------------------------------------------------------------
                           Kossuth utcán - Rubber Puppet
-------------------------------------------------------------------------------

Tabbed by: TBone142
e-mail: tbone142@freemail.hu

Tuning: standard EADG

Intro (0:14):
G|----------4--------------------------------4-------------------------------|
D|------4h5------5p4-5----7--------------4h5------5p4-5----7-----------------|
A|-5---------------------------5----5---------------------------5------------|
E|---------------------------------------------------------------------------|

G|---------------------------------------------------------------------------|
D|-5----7---------5----7----9----7----5----7---------------------------------|
A|-----------5----------------------------------5----------------------------|
E|---------------------------------------------------------------------------|

Bridge:
G|---------------------------------------------------------------------------|
D|---------------------------------------------------------------------------|
A|-5--55--5--5-5-5-5--55--5--5-5-5-2--22--2--2-2--2--22--2--2----------------|
E|------------------------------------------------------------2-2------------|

G|---------------------------------------------------------------------------|
D|---------------------------------------------------------------------------|
A|---------------------------------5--55--5--5-5--5--55--5--5-5--------------|
E|-3--33--3--3-3-3-5--55--5--5-5-5-------------------------------------------|

Verse:
G|------------------------------------------------------------------------|
D|------------------------------------------------------------------------|
A|-5--55--5--5-5-5-5--55--5--5-5-5-2--22--2--2-2--2--22--2--2-------------|
E|------------------------------------------------------------2-2---------|\
                                                                            x2
G|------------------------------------------------------------------------|/
D|------------------------------------------------------------------------|
A|---------------------------------5--55--5--5-5--5--55--5--5-5-----------|
E|-3--33--3--3-3-3-5--55--5--5-5-5----------------------------------------|

Chorus:
G|---------------------------------------------------------------------------|
D|---------------------------------------------------------------------------|
A|-------------------------------5--55--5--5-5--5--55--5--5-5----------------|
E|-3--33--3--3-3--5--55--5--5-5----------------------------------------------|

G|---------------------------------------------------------------------------|
D|---------------------------------------------------------------------------|
A|-------------------------------2--22--2--2-2-------------------------------|
E|-3--33--3--3-3--5--55--5--5-5-----------------5--55--5--5-5----------------|

G|---------------------------------------------------------------------------|
D|---------------------------------------------------------------------------|
A|-------------------------------5-------------------------------------------|
E|-3--------------5----------------------------------------------------------|

Bridge:
G|---------------------------------------------------------------------------|
D|---------------------------------------------------------------------------|
A|-5--55--5--5-5-5-5--55--5--5-5-5-2--22--2--2-2--2--22--2--2----------------|
E|------------------------------------------------------------2-2------------|

G|---------------------------------------------------------------------------|
D|---------------------------------------------------------------------------|
A|---------------------------------5--55--5--5-5--5--55--5--5-5--------------|
E|-3--33--3--3-3-3-5--55--5--5-5-5-------------------------------------------|

Verse:
G|------------------------------------------------------------------------|
D|------------------------------------------------------------------------|
A|-5--55--5--5-5-5-5--55--5--5-5-5-2--22--2--2-2--2--22--2--2-------------|
E|------------------------------------------------------------2-2---------|\
                                                                            x2
G|------------------------------------------------------------------------|/
D|------------------------------------------------------------------------|
A|---------------------------------5--55--5--5-5--5--55--5--5-5-----------|
E|-3--33--3--3-3-3-5--55--5--5-5-5----------------------------------------|

Chorus:
G|---------------------------------------------------------------------------|
D|---------------------------------------------------------------------------|
A|-------------------------------5--55--5--5-5--5--55--5--5-5----------------|
E|-3--33--3--3-3--5--55--5--5-5----------------------------------------------|

G|---------------------------------------------------------------------------|
D|---------------------------------------------------------------------------|
A|-------------------------------2--22--2--2-2-------------------------------|
E|-3--33--3--3-3--5--55--5--5-5-----------------5--55--5--5-5----------------|

G|---------------------------------------------------------------------------|
D|---------------------------------------------------------------------------|
A|-------------------------------5-------------------------------------------|
E|-3--------------5----------------------------------------------------------|

Solo:
G|------------------------------------------------------------------------|
D|------------------------------------------------------------------------|
A|-5--55--5--5-5-5-5--55--5--5-5-5-2--22--2--2-2--2--22--2--2-------------|
E|------------------------------------------------------------2-2---------|\
                                                                            x2
G|------------------------------------------------------------------------|/
D|------------------------------------------------------------------------|
A|---------------------------------5--55--5--5-5--5--55--5--5-5-----------|
E|-3--33--3--3-3-3-5--55--5--5-5-5----------------------------------------|

Chorus:
G|---------------------------------------------------------------------------|
D|---------------------------------------------------------------------------|
A|-------------------------------5--55--5--5-5--5--55--5--5-5----------------|
E|-3--33--3--3-3--5--55--5--5-5----------------------------------------------|

G|---------------------------------------------------------------------------|
D|---------------------------------------------------------------------------|
A|-------------------------------2--2--2-2-2---------------------------------|
E|-3--33--3--3-3--5--55--5--5-5--------------5--5-5--5--5-5------------------|

G|---------------------------------------------------------------------------|
D|---------------------------------------------------------------------------|
A|-------------------------------5-------------------------------------------|
E|-3--------------5----------------------------------------------------------|

Bridge:
G|----------4--------------------------------4------------------7------------|
D|------4h5------5p4-5----7--------------4h5------5p4-5----7-----------------|
A|-5---------------------------5----5----------------------------------------|
E|---------------------------------------------------------------------------|

Chorus:
G|---------------------------------------------------------------------------|
D|---------------------------------------------------------------------------|
A|-------------------------------5--55--5--5-5--5--55--5--5-5----------------|
E|-3--33--3--3-3--5--55--5--5-5----------------------------------------------|

G|---------------------------------------------------------------------------|
D|---------------------------------------------------------------------------|
A|-------------------------------2--22--2--2-2-------------------------------|
E|-3--33--3--3-3--5--55--5--5-5-----------------5--55--5--5-5----------------|

G|---------------------------------------------------------------------------|
D|---------------------------------------------------------------------------|
A|---------------------------------5--55--5--5-5--5--55--5--5-5--------------|
E|-3--33--3--3-3-3-5--55--5--5-5-5-------------------------------------------|

G|---------------------------------------------------------------------------|
D|---------------------------------------------------------------------------|
A|-------------------------------5--55--5--5-5--5--55--5--5-5----------------|
E|-3--33--3--3-3--5--55--5--5-5----------------------------------------------|

G|---------------------------------------------------------------------------|
D|---------------------------------------------------------------------------|
A|-------------------------------2--2--2-2-2---------------------------------|
E|-3--33--3--3-3--5--55--5--5-5--------------5--5-5--5--5-5------------------|

G|---------------------------------------------------------------------------|
D|---------------------------------------------------------------------------|
A|---------------------------------------------------------------------------|
E|-3--------------5--------------3-------------5-----------------------------|

===============================================================================
Notes: 

Rubber Puppet is a Hungarian rock band from my hometown Veszprém.

The band's (Hungarian) homepage: http://www.rubberpuppet.hu/

YouTube link for this song: http://www.youtube.com/watch?v=0-6M1KLJHIM

If You have problems with this tab, write Me a mail what's wrong with it
instead of giving it a bad rating! It'd be better for everyone! Thx!


| /  slide up
| \  slide down
| h  hammer-on
| p  pull-off
| ~  vibrato
| +  harmonic
| x  Mute note
===============================================================================
Suggest correction
What's this?
You can suggest a correction to this tab. Community and Mods will review your correction and vote to approve or reject it.
comments
We did not receive enough feedback on this tab! Please rate:
print report bad tab
1 2 3 4 5
guest
You may want to rate the tab now too:
select rating
Please do not post tabs as comments. Select "correction" instead!