Oops, an error
Loading. Please wait.

El Miedo Global Tab

41 views 1 this week
no commentswrite comment
1 2 3 4 5
please rate
add to favorites
launch autoscroll
font size
0
reset
how to read this tab
guitar tuner
Autoscroll
slow
fast
+/-
esc
set tempo
stop
Help us to improve Ultimate-Guitar.com Take our survey!
×
Author
                      Rubberslime - El Miedo Global

by : malle
Band: Ruberslime
Album: Rock'n'Roll Genossen
Guitar: Elf - Lead-guitar ; Minne - Rythm-guitar
official website : www.rubberslime.de



intro:

(Minne plays this three times)

   G    Ass   F    C

(Elf plays this during Minne plays the akkords the first time)

------------|
------------|
------------|  (one time)
----3h5-----|
------------|
------------|

(elf plays this during Minne plays the second and third repetition of the akkords)
-------------------------------------------------------------------|
-------------------------------------------------------------------|
--3-------------3-------------3---------------5b--5--3---5p3-------|  (two
----5-3--5-3-5----5-3--5-3-5----5-3--5-3-5--------------------3----| times)
-------------------------------------------------------------------|
-------------------------------------------------------------------|


Verse:

        G    Ass   F   C            (two times)


-------------------------------------------------------------------|
-------------------------------------------------------------------|
--3-------------3-------------3---------------5b--5--3---5p3-------|  (two
----5-3--5-3-5----5-3--5-3-5----5-3--5-3-5--------------------3----|  times)
-------------------------------------------------------------------|
-------------------------------------------------------------------|

        G    Ass    F  C


        G    Ass    F  c/D

Refrain:

                  Ess   D   C   Ass        G

                  Ess   D   C   Ass        C


-------------------------------------------------------------------|
-------------------------------------------------------------------|
--3-------------3-------------3---------------5b--5--3---5p3-------|  (two
----5-3--5-3-5----5-3--5-3-5----5-3--5-3-5--------------------3----|  times)
-------------------------------------------------------------------|
-------------------------------------------------------------------|



Verse:

           G    Ass   F   C            (two times)



Solo:   I don't really know what he plays but I know it is played on G



Refrain:

                  Ess   D   C   Ass        G

                  Ess   D   C   Ass        C

Verse:


        G    Ass    F  C


        G    Ass    F  c/D


(this is played during the Verse)
-----------------------------------------------|
-----------------------------------------------|
--10h12--12--12---10h12-12-12----10h12--12-----|
-----------------------------------------------|
-----------------------------------------------|
-----------------------------------------------|


Refrain:

                Ess   D   C   Ass        G   (three times)


                Ess   D   C   Ass        C



Outro:


   G  Ass  F  C          (three times)

  FhG (nine times)


   G

Elf plays this during Minne plays the achords
-------------------------------------------------------------------|
-------------------------------------------------------------------|
--3-------------3-------------3---------------5b--5--3---5p3-------|  (three
----5-3--5-3-5----5-3--5-3-5----5-3--5-3-5--------------------3----|  times)
-------------------------------------------------------------------|
-------------------------------------------------------------------|


---------------------------------------------------------------|
------3-----3-----3-----3-----3-----3-----3-----3--------------|
--5b7---5b7---5b7---5b7---5b7---5b7---5b7---5b7---5b7----------|
----------------------------------------------------------5----|
---------------------------------------------------------------|
---------------------------------------------------------------|



I'm very sure this is the right tab so i hope you enjoy it
Suggest correction
What's this?
You can suggest a correction to this tab. Community and Mods will review your correction and vote to approve or reject it.
comments
We did not receive enough feedback on this tab! Please rate:
print report bad tab
1 2 3 4 5
guest
You may want to rate the tab now too:
select rating
Please do not post tabs as comments. Select "correction" instead!