Oops, an error
Loading. Please wait.

Whatever This Is chords

46 views 1 this week
no commentswrite comment
1 2 3 4 5
3 more votes to show rating
add to favorites
×
Save as Personal and add changes to this tab that will be seen only by you. Learn more ›
×
You can save this tab as Personal to edit and correct it or add notes. All changes will be seen only by you. Learn more »
launch autoscroll
font size
0
reset
transpose
0
reset
display chords
guitar tuner
edit
Autoscroll
slow
fast
+/-
esc
set tempo
stop
Author
Strumming
There is no strumming pattern for this song yet. and get +5 IQ
https://rubycoast.bandcamp.com/track/whatever-this-is

[Keyboard chorus]

   G     C   Em   D
e|------------------|
B|--12--------8---7-|
G|--12----9---9---7-|
D|--12---10---9---7-|
A|-------10---------|
E|------------------|


[Chorus riff]

    C       D      G         Em
e|---------------------------------|
B|-----5-------7--------12-------8-|
G|---------------------------------|
D|---------------------------------|
A|--3-------5-------10--------7----|
E|---------------------------------|


[Verse 1]

G             C
everything's fine
Em          D
peachy as a key lime
G        C
let me revise
Em            D             G
I'm not convinced by my own lies
G            C
I wanna feel young not scared
Em               D
pure love that's not impaired
G       C
invite chance
Em            D
flee death by romance


[Chorus]

C             D                G     Em
whatever this is, whatever you do
C           D                 G       Em
better or worse share all the news
C                     D            G
common as the cold you understand


[Verse 2]

G              C
my favourite dream
Em           D
is a partial nightmare
G             C
you said come clean
Em              D
that it's only fair
G              C
it's like the closest kiss
Em              D
is using your chapstick
G               C
such a long long longing
Em             D
a puzzle worth solving


[Chorus]

C             D                G     Em
whatever this is, whatever you do
C           D                 G       Em
better or worse share all the news
C                     D            G
common as the cold you understand
G              Em
let it die or become friends
C                   D
so droughts can turn to floods


[Riff 1]

e|-----------------------------------------------------------10----|
B|----8----8-------7-----7----------12------12-----12-----------12-|
G|-----------------------------------------------------------------|
D|-----------------------------------------------------------------|
A|--7----7---7--5-----5-----5---10------10------10-----10----------|
E|-----------------------------------------------------------------|


[Chorus]

C             D                G     Em
whatever this is, whatever you do
C           D                 G       Em
better or worse share all the news
C                     D            G
common as the cold you understand
G              Em
let it die or become friends
C                   D
so droughts can turn to floods

            
            
Suggest correction
Creating personal tab
Creating personal tab
You can edit any tab online and save it as your Personal.

You can edit, replace or remove any tab part or add personal notes – all changes will be seen only by you.

Personal tabs can be accessed anytime from any device, even offline.
Learn more »
Give kudos to tab author, rate the tab!
1 2 3 4 5
comments
print report bad tab
guest
You may want to rate the tab now too:
select rating
Wanna post a correction for this tab? Suggest correction