Oops, an error
Loading. Please wait.

Feel The Love Tab

3,958 views 6 this week
no commentswrite comment
1 2 3 4 5
2 more votes to show rating
add to favorites
launch autoscroll
font size
0
reset
how to read this tab
guitar tuner
Autoscroll
slow
fast
+/-
esc
set tempo
stop
Help us to improve Ultimate-Guitar.com Take our survey!
×
Difficulty
Tuning
Capo
intermediate
D A D G B E
4th fret
Rudimental - Feel The Love (Acoustic cover)

http://www.youtube.com/watch?v=10peMQtMT_w&list=LLPyQFBfDpOySPDhQ6ZvxJ6g

The song is in drop D tuning(DADGBE).

The chords throughout the entire song are: Am7  G  D5

Capo on 4th fret


   Am7                         G               D5
e|----------------3p0-------------------------------0-------------0---------|
B|-------1-------------3p1-------------------------3---3---------3---3------|
G|-----0---0-------------------------------------2-------2-----2-------2----|
D|---2-------2------------------5-----5h7p5----0-----------0-4-----------4-0|
A|-0-----------0----------------5--5h7-----7--------------------------------|
D|---------------------------/5---------------------------------------------|


e|----0--------0--------------------------------------------------------------|
B|---3-3------3-2-------------------------------------------------------------|
G|--2---2---2----3------------------------------------------------------------|
D|-------0-4------4--0--------------------------------------------------------|
A|----------------------------------------------------------------------------|
D|----------------------------------------------------------------------------|



For Ollie
Suggest correction
Give kudos to tab author, rate the tab!
1 2 3 4 5
comments
print report bad tab
guest
You may want to rate the tab now too:
select rating
Wanna post a correction for this tab? Suggest correction