Oops, an error
Loading. Please wait.

Dream City Tab

304 views 1 this week
no commentswrite comment
1 2 3 4 5
please rate
add to favorites
launch autoscroll
font size
0
reset
how to read this tab
guitar tuner
Autoscroll
slow
fast
+/-
esc
set tempo
stop
Help us to improve Ultimate-Guitar.com Take our survey!
×
Author
Difficulty
Tabbers playing skills
intermediate
advanced
Rudimentary Peni - Dream City
Cacophony (1989)
Tabbed By ruker
Standard Tuning EADGBE

--------------
Key:
--------------
.   Palm Mute
~   Vibrato
h   Hammer-On
p   Pull-Off
b   Bend
r   Release
/   Slide Up
\   Slide Down
--------------


GUITAR - Flanger Effect

Riff A (0:00)                             13x
||--9--9--9--9--9--9--9--9--5-5-5-5-7-7-7-7--||
||*-9--9--9--9--9--9--9--9--5-5-5-5-7-7-7-7-*||
||--10-10-10-10-10-10-10-10-6-6-6-6-8-8-8-8--||
||--11-11-11-11-11-11-11-11-7-7-7-7-9-9-9-9--||
||*-11-11-11-11-11-11-11-11-7-7-7-7-9-9-9-9-*||
||--9--9--9--9--9--9--9--9--5-5-5-5-7-7-7-7--||


Riff B (0:44)
||-9----------------------------------||
||-9------11-11-11-11-11-11-11-11~----||
||-10---------------------------------||
||-11---------------------------------||
||-11---------------------------------||
||-9----------------------------------||



BASS - Legato Slides

Riff A (0:00)
||----------------------------------------||
||*--------------------------------------*||
||*--------------------------------------*||
||--9-9-9-9\7-7/9-9-9-9\5-5-5-5-5-5/7\5/7-||


Riff B (0:44)
||---------------------||
||------9---8----------||
||-11------------------||
||---------------------||
Suggest correction
Give kudos to tab author, rate the tab!
1 2 3 4 5
comments
print report bad tab
guest
You may want to rate the tab now too:
select rating
Please do not post tabs as comments. Select "correction" instead!