Oops, an error
Loading. Please wait.

Wailing Paddle bass

version 2
version 2

Whole song

699 views 3 this week
no commentswrite comment
1 2 3 4 5
3 more votes to show rating
add to favorites
×
Save as Personal and add changes to this tab that will be seen only by you. Learn more ›
×
You can save this tab as Personal to edit and correct it or add notes. All changes will be seen only by you. Learn more »
launch autoscroll
font size
0
reset
guitar tuner
edit
Autoscroll
slow
fast
+/-
esc
set tempo
stop
Author
Difficulty
Wailing Paddle
The Rudiments
standard tuning (E-A-D-G)
uhh this song sounds better when played with a pick in my oppion and it is much easier i 
i mean it sounds aight when you play it with your fingers but the tone that comes from 
bassist is kinda flat and like dirnt, which makes me beleive they use a pick.

G------------------------|
D----2-------2-----------|
A--3---0---3---0------0--|
E--------1-------111-3---|

G-------------------------------|
D----2-5-22-5-2-----------------| 10 times
A--33--------------3--------00--|
E---------------55---5-111-3----|

G-----------------------------------------|
D------------2-2222222------------3333-2--| 4 times
A--3-3333333-----------0-0000000----------|
E-----------------------------------------|

G--------------------------------------------------------|
D--3-5-3-2-3-2-00----------------------------------------| 2 times
A-----------------1-0-33-3-1-00---0--0-1-3---------------|
E-------------------------------11---------3-33-3333-33--|

G-------------------------------|
D----2-5-22-5-2-----------------| 8 times
A--33--------------3--------00--|
E---------------55---5-111-3----|

G-----------------------------------------|
D------------2-2222222------------3333-2--| 4 times
A--3-3333333-----------0-0000000----------|
E-----------------------------------------|

G--------------------------------------------------------|
D--3-5-3-2-3-2-00----------------------------------------| 2 times
A-----------------1-0-33-3-1-00---0--0-1-3---------------|
E-------------------------------11---------3-33-3333-33--|

G---------------------------------------------------------|
D-------------2-----------------3----2~~~/slide up to 14--|
A--3---0----3---0----3---0----5----5----------------------|
E----0-----------------0----------------------------------|

(Vocal Break)

G-------------------------------|
D----2-5-22-5-2-----------------| 4 times
A--33--------------3--------00--|
E---------------55---5-111-3----|

G-----------------------------------------|
D------------2-2222222------------3333-2--| 4 times
A--3-3333333-----------0-0000000----------|
E-----------------------------------------|

G-------------------------------|
D----2-5-22-5-2-----------------| 4 times
A--33--------------3--------00--|
E---------------55---5-111-3----|

G-----------------|
D-----------------|
A--3(hold till end)
E-----------------

            
            
Suggest correction
Creating personal tab
Creating personal tab
You can edit any tab online and save it as your Personal.

You can edit, replace or remove any tab part or add personal notes – all changes will be seen only by you.

Personal tabs can be accessed anytime from any device, even offline.
Learn more »
Give kudos to tab author, rate the tab!
1 2 3 4 5
comments
print report bad tab
guest
You may want to rate the tab now too:
select rating
Wanna post a correction for this tab? Suggest correction