Oops, an error
Loading. Please wait.

Blame Tab

version 1
version 1

Whole song

Interactive

675 views 1 this week
1 commentread comment
1 2 3 4 5
please rate
add to favorites
launch autoscroll
font size
0
reset
how to read this tab
guitar tuner
Autoscroll
slow
fast
+/-
esc
set tempo
stop
Help us to improve Ultimate-Guitar.com Take our survey!
×
Author
Difficulty
Tuning
novice
D# G# C# F# A# D#
Tabbed By: Diêgo Palmeira
Song By: Rue Royale

(Down half-step tuning)

Intro/Verse:
D#|-----------------------------|
A#|-10-10-10--10-10-10----------|
F#|-9--9--9---9--9--9-----------|
C#|-----------------------------|
G#|-9--9--9---8--8--8-----------|
D#|-----------------------------|

D#|-----------------------------|
A#|-10-10-10--10-10-10----------|
F#|-9--9--9---9--9--9-----------|
C#|-----------------------------|
G#|-7--7--7---0--0--0-----------|
D#|-----------------------------|

Chorus:
D#|-----------------------------|
A#|--8-8-8--5-5-5--3-3-3--------|
F#|--7-7-7--4-4-4--2-2-2--------|
C#|-----------------------------|
G#|--7-7-7--4-4-4--2-2-2--------|
D#|-----------------------------|

Outro:
D#|----------------------------------|
A#|----------------------------------|
F#|-2-2-2--2-2-2--2-2-2--0-0-0-0-0-0-|
C#|-0-0-0--0-0-0--0-0-0--0-0-0-------|
G#|---------------2-2-2--2-2-2-------|
D#|-2-2-2--3-3-3---------------------|
Suggest correction
What's this?
You can suggest a correction to this tab. Community and Mods will review your correction and vote to approve or reject it.
comments
We did not receive enough feedback on this tab! Please rate:
print report bad tab
1 2 3 4 5
1 comment total.
0 reply
fritsvds 161 wrote on January 25 2013, 08:15 am

Your verse and chorus are in a different key than your outro.

guest
You may want to rate the tab now too:
select rating
Please do not post tabs as comments. Select "correction" instead!