Oops, an error
Loading. Please wait.

Guide To An Escape Tab

version 3
version 3

Whole song

717 views 3 this week
no commentswrite comment
1 2 3 4 5
excellent!
x 4
add to favorites
launch autoscroll
font size
0
reset
how to read this tab
guitar tuner
Tab Pro tools
  • play this tab
  • loop segment
  • change instrument
  • show fretboard
  • metronome
Autoscroll
slow
fast
+/-
esc
set tempo
stop
Difficulty
intermediate
Rue Royale - Guide to an Escape
Tuning: Standard (EADGBe)
Capo on 1

Tabbed by L Grado

Verse:
|----------------------------------|----------------------------------|
|-------1-------1------1---------1-|-------1-------1--------1---------|
|---2-------2-------2------2-------|---2-------2--------2-------2-----|
|-----2-------2-------2------0h2---|-----2-------2--------2---------2-|
|-0-------0-------0------0---------|-0-------0--------3-------3-------|
|----------------------------------|------------------------------0---|

|---------------------------------|---------------------------------|
|---------------------------------|---------------------------------|
|-------2-------2-------2-------2-|-------2-------2-------2-------2-|
|---2-------2-------2-------2-----|---2-------2-------2-------2-----|
|-----3-------3-------3-----------|-----3-------3-------3-----------|
|-1-------1-------1-------1---0---|-1-------1-------1-------1---0---|

Chorus

|------------------------------------|------------------------------------|
|-------0--------0--------0--------0-|------------------------------------|
|---0--------0--------0--------0-----|-------0--------0--------0--------0-|
|-----0--------0--------0--------0---|---2--------2--------2--------2-----|
|------------------------------------|-----2--------2--------2--------2---|
|-3--------3--------3--------3-------|-0--------0--------0--------0-------|

|---------------------------------|---------------------------------|
|---------------------------------|---------------------------------|
|-------2-------2-------2-------2-|-------2-------2-------2-------2-|
|---2-------2-------2-------2-----|---2-------2-------2-------2-----|
|-----3-------3-------3-----------|-----3-------3-------3-----------|
|-1-------1-------1-------1---0---|-1-------1-------1-------1---0---|


Verse:
        Caught in the tide caught in a slide
        Hoping that i will learn to survive
        Eye on the time as it goes by
        Losing the light fading the lines

Chorus:
        If you would be my guide to an escape
        If you would be my guide we'd be alright

Verse:
        Clawing the gates of every estate
        There on my way until i find your place
        Confusing my brain all of the ways
        I could not take that look on your face

Chorus:
        If you would be my guide to an escape
        If you would be my guide we'd be alight
comments
print report bad tab
I want to post or [tab]
guest
You may want to rate the tab now too:
select rating
Please do not post tabs as comments. Select "correction" instead!