Oops, an error
Loading. Please wait.

Set Out To Discover chords

293 views 1 this week
no commentswrite comment
1 2 3 4 5
3 more votes to show rating
add to favorites
×
Save as Personal and add changes to this tab that will be seen only by you. Learn more ›
×
You can save this tab as Personal to edit and correct it or add notes. All changes will be seen only by you. Learn more »
launch autoscroll
font size
0
reset
transpose
0
reset
display chords
guitar tuner
edit
Autoscroll
slow
fast
+/-
esc
set tempo
stop
Strumming
There is no strumming pattern for this song yet. and get +5 IQ
----------------------------- Rue Royale ------------------------------------
------------------------- Set Out to Discover -------------------------------

Tabbed By: Diêgo Palmeira


--> Tuning: D# G# C# F# A# D# <---

 
 Intro: C#m


 C#m
Not long until we're there it's in the air

How long until we're there 
                B              A
I wouldn't dare speculate the journey ahead

 C#m
I've heard the heavens are storm-less there
                                 B              A
We've left a dried up river bed heading for the promise land

 C#m
I've got a glass jar of memories

I've been collecting old tragedies
        B     A
I've heard of remedies


Chorus:

And we set out  
D#|----------------------------|
A#|--9----9----9---------------|
F#|--11---11---11--------------|
C#|--11---11---11--------------|
G#|--0----0----0---------------|
D#|----------------------------|

To discover the remedies
D#|----------------------------|
A#|--7---7---7-----------------|
F#|--8---8---8-----------------|
C#|--9---9---9-----------------|
G#|--9---9---9-----------------|
D#|----------------------------|

And we'll stay out 
D#|----------------------------|
A#|--9----9----9---------------|
F#|--11---11---11--------------|
C#|--11---11---11--------------|
G#|--0----0----0---------------|
D#|----------------------------|

Until we run into remedies
D#|----------------------------|
A#|--7---7---7-----------------|
F#|--8---8---8-----------------|
C#|--9---9---9-----------------|
G#|--9---9---9-----------------|
D#|----------------------------|

 C#m
We've chosen quiet ways around the bend
 
We've sought alternate ways in our head
  B             A
We've taken consequence

 C#m
I'll drive the sun is burning or eyes

You drive us through the night, tired eyes
 B            A
Hoping our bearing's right


Pont (Play strumming):

D#|----------------------------|
A#|--9----9----9---------------|
F#|--11---11---11--------------|
C#|--11---11---11--------------|
G#|--0----0----0---------------|
D#|----------------------------|

D#|----------------------------|
A#|--7---7---7-----------------|
F#|--8---8---8-----------------|
C#|--9---9---9-----------------|
G#|--9---9---9-----------------|
D#|----------------------------|
Suggest correction
Creating personal tab
Creating personal tab
You can edit any tab online and save it as your Personal.

You can edit, replace or remove any tab part or add personal notes – all changes will be seen only by you.

Personal tabs can be accessed anytime from any device, even offline.
Learn more »
Give kudos to tab author, rate the tab!
1 2 3 4 5
comments
print report bad tab
guest
You may want to rate the tab now too:
select rating
Wanna post a correction for this tab? Suggest correction