Oops, an error
Loading. Please wait.

These Long Roads Chords

776 views 1 this week
4 commentsread comments
1 2 3 4 5
please rate
add to favorites
launch autoscroll
font size
0
reset
transpose
0
reset
simplify chords
display chords
guitar tuner
Autoscroll
slow
fast
+/-
esc
set tempo
stop
Help us to improve Ultimate-Guitar.com Take our survey!
×
Author
Difficulty
DiggyNBA 673
novice
---------------------------- Rue Royale -------------------------------------|
---------------------------- These Long Roads -------------------------------|

Tabbed By: Diêgo Palmeira

Intro/Verse:

    Am
E|----------------------------|
B|---1---1---1-------1--------|
G|---2---2---2-------2--------|
D|---2---2---2-------2--------|
A|-0---------------0----------|
E|-----3---2---1-0------------|
(This is an AM you just play making the basses in the A and E string)

Chorus:
 Fmaj7/C 
At the end
                          Am
At the end of these long roads

We will gather there
                        Fmaj7/C 
With our hands in the air (2x)

(So, you back to the tab to the second verse)


This is a little different after the vocal part (Aaah, aah, aah,)


E|------------------------------|
B|-1h0---------------1h0-1------|
G|------2---2---2--------2------|
D|------2---2---2--------2------|
A|-0-----------------0----------|
E|---- 3---2---1-0--------------|


And so that 1h0 in the B string remains right before they sing "It's the threat of the century
And I need to lie down" till the end:


E|---------------------------------|
B|-1h0----1h0---1h0--------1h0-1---|
G|------2----2-----2--------2------|
D|------2----2-----2--------2------|
A|-0---------------------0---------|
E|---- 3----2-------1-0------------|
Suggest correction
What's this?
You can suggest a correction to this tab. Community and Mods will review your correction and vote to approve or reject it.
comments
We did not receive enough feedback on this tab! Please rate:
print report bad tab
1 2 3 4 5
4 comments total. Showing first comments.
+1 reply
fritsvds 160 wrote on January 24 2013, 12:20 pm

You are tabbing upside down. I've seen this in a few of your tabs.
This is very confusing. Please use the following order:

E

0 reply
fritsvds 160 wrote on January 24 2013, 12:22 pm

hmm that went wrong, and somehow I am not allowed to edit, but I meant:
Top to bottom: e, B, G, D, A, E (that's the regular order)

0 reply
DiggyNBA 673 wrote on February 4 2013, 09:00 am

But I use a default like the chords in the guitar !

guest
You may want to rate the tab now too:
select rating
Please do not post tabs as comments. Select "correction" instead!