Oops, an error
Loading. Please wait.

Above Me Bass Tab

version 2
version 2

Whole song

2,839 views 3 this week
2 commentsread comments
1 2 3 4 5
excellent!
x 3
add to favorites
launch autoscroll
font size
0
reset
guitar tuner
Tab Pro tools
  • play this tab
  • loop segment
  • change instrument
  • show fretboard
  • metronome
×
Best way to learn
"Above Me"
Autoscroll
slow
fast
+/-
esc
set tempo
stop
Contributor
Difficulty
intermediate
 R U F I O - A B O V E  M E
 --------------------------

1. ABOVE ME (VERSION WARPED TOUR 2003 AND VERSION LIVE)
   
   Tuning: EADG

  Intro

G|-----------------------------------------|
D|-----------------------------------------|  (X3)
A|-----------------------------------------|
E|--55555555-66666666-1010101010-88888888--|

G|-------------------------------------------|
D|-------------------------------------------|  (X1)
A|--------------------1212121212-1010101010--|
E|--55555555-66666666------------------------|

G|-------------------------------------|
D|--------------------10-8-7-87--7-----|
A|-----------------------------10-108--|
E|--6666666666666666-------------------|

  Verse
  "If I was to walk......"

G|---------------------------------------------------------------------------|
D|---------------------------------------------------------------------------|
A|-55555555555555555----------------8888888888888888-------------------------|
E|------------------6666666666666666----------------8888888888888888---------|

G|---------------------------------------------------------------------------|
D|---------------------------------------------------------------------------|
A|-55555555555555555----------------8888888888888888-------------------------|
E|------------------6666666666666666----------------8888888888888888---------|

  Pre-Chorus
  "You showed me life and lived nothing else...."

G|---------------------------------------------------------------------------|
D|---------------------------------------------------------------------------|
A|-8-7-8-10-8-7--------------------10-8-10-12-10-8-----88888888--------------|
E|---------------6666666655555555-------------------------------88888888-----|

G|----------------------------------------------------------------------------------|
D|----------------------------------------------------------------------------------|
A|--------------------------------------------------------------55555555-33333333---|
E|-55555555-66666666-101010101010-888888888----55555555-66666666--------------------|

  Chorus
  "When I look at the stars......"

G|---------------------------------------------------------------------------------|
D|---------------------------------------------------------------------------------| (x2)
A|-------------------------------------------------5555555555555555----------------|
E|-666666666666666688888888888888881010101010101010--------------------------------|

G|--------------------------------------|
D|--------------------------------------| (X1)
A|--------------------------------------|
E|-666666666666666-88888888888888-8~----| 

  Outro
  "Angel above me..."

G|-----------------------------------------------------------------|
D|-----------------------------------------------------------------|  (X2)
A|-----------------------------------------------------------------|
E|---55555555-66666666-1010101010-88888888-------------------------|

  Bridge
  "To look at the mountains vast and great...."

G|-------------------------------------------------------------------------------|
D|-------------------------------------------------------------------------------|
A|----------555-55-55---------777-555--------------------------------------------|
E|-666-66-66---------555-55-55---------6666666666666666-8888888888\1212121212----|

G|---------------------------------------------------------------------------|
D|---------------------------------------------------------------------------|
A|----------555-55-55---------777-555----------------------------------------|
E|-666-66-66---------555-55-55---------6666666666666666-88888888888888-8x----|

  Verse
  "If I was to walk......"

G|---------------------------------------------------------------------------|
D|---------------------------------------------------------------------------|
A|-55555555555555555----------------8888888888888888-------------------------|
E|------------------6666666666666666----------------888-888-8888-8-88-888----|

G|-------------------------------------------------------|
D|-------------------------------------------------------|
A|-55555555555555555-------------------8x----------------|
E|------------------6666666666666666--------8~-----------|

  Pre-Chorus
  "You showed me life and lived nothing else...."

G|---------------------------------------------------------------------------|
D|---------------------------------------------------------------------------|
A|-8-7-8-10-8-7--------------------10-8-10-12-10-8-----88888888--------------|
E|---------------6666666655555555-------------------------------88888888-----|

G|----------------------------------------------------------------------------------|
D|----------------------------------------------------------------------------------|
A|--------------------------------------------------------------55555555-33333333---|
E|-55555555-66666666-101010101010-888888888----55555555-66666666--------------------|
  
  Chorus
  "When I look at the stars......"

G|---------------------------------------------------------------------------------|
D|---------------------------------------------------------------------------------| (x2)
A|-------------------------------------------------5555555555555555----------------|
E|-666666666666666688888888888888881010101010101010--------------------------------|

G|--------------------------------------|
D|--------------------------------------| (X1)
A|--------------------------------------|
E|-666666666666666-88888888888888-8~----| 

  Outro
  "Angel above me..."

G|-----------------------------------------------------------------|
D|-----------------------------------------------------------------|  (X2)
A|-----------------------------------------------------------------|
E|---55555555-66666666-1010101010-88888888-------------------------|

  Bass Solo........(I'm not sure about this solo) 

G|--------------------------------------------------------------------------------------|
D|--------------------------------------------------------------------------------------|  
A|--------------------------------------------------------------------------------------|
E|---55x---66x----101010-1010-10-888-88-888---55x---66x----101010-1010-10-888-88-888----|

 
G|-----------------------------------------------------------------|
D|--------------------------------------10h1210----12--------------|  
A|----------------------------------1012-------1312--13p12---------|
E|---555-55-555-666-66-666--10101213----------------------1210-----|


G|-------------------------------------------------------------|
D|-------------------------1212101088----1010p88---------------|  
A|-----------------------------------1212-------1212p1010------|
E|---555-55-555-666-66-666-------------------------------------|

  End

G|-------------|
D|-------------|  
A|--8~--8x-----|
E|-------------|



Legend Tab

| /  slide Up
| \  slide Down
| h  Hammer-On
| p  Pull-Off
| ~  vibrato
| x  Mute Note

Oscar Olarte/rufiopunkrock
If you have any questions,comments.....oscardanielof@hotmail.com
www.myspace.com/bassnautilius
comments
We did not receive enough feedback on this tab! Please rate:
print report bad tab
1 2 3 4 5
2 comments total.
0 reply
RaiLeff wrote on May 8 2007, 06:12 pm

The prechorus, bridge and the solos are wrong :/

0 reply
RaiLeff wrote on May 8 2007, 06:19 pm

try to listen more carefully to the pre chorus

I want to post or [tab]
guest
You may want to rate the tab now too:
select rating
Please do not post tabs as comments. Select "correction" instead!