Oops, an error
Loading. Please wait.

Comfort Of Home album bass

by Rufio
385 views 1 this week
3 commentsread comments
1 2 3 4 5
2 more votes to show rating
add to favorites
×
Save as Personal and add changes to this tab that will be seen only by you. Learn more ›
×
You can save this tab as Personal to edit and correct it or add notes. All changes will be seen only by you. Learn more »
launch autoscroll
font size
0
reset
guitar tuner
edit
Autoscroll
slow
fast
+/-
esc
set tempo
stop
Author
++++++++++++++++++++++++++++++
| Rufio- The Comfort Of Home |
++++++++++++++++++++++++++++++

Bass Tab
Album: "The Comfort Of Home" (2005)
Tabbed By: RaiLeff
E-Mail: Underground__Dora@Hotmail.Com 

Tuning: EADG, DADG, and DGCF

Keys:

| x: Mute
| ~: Let Ring
| /: Slide Up
| \: Slide Down
| h: Hammer On
| p: Pull Off

Tracks:

1.  Out Of Control
2.  Let Fate Decide
3.  A Simple Line
4.  Interlude
5.  Never Learn
6.  Bitter Season
7.  Mental Games
8.  Interlude
9.  Drowning
10. Questions And Answers
11. Life Songs
12. Interlude
13. Walk Don't Run
14. A View To Save
15. Interlude/On Our Own
16. My Escape

_____________________________________

1. Out Of Control

Tuning: EADG

Intro
1.
G|-------------------------------------------|
D|-------------------------------------------|
A|------------5--55--55------------5--55--55-|--x2
E|-2-22-5--55-----------2-22-5--55-----------|

2.
G|-------------------------------6-4----------6-4-----|
D|---------------------------0-0-----7-6--0-0-----7-6-|
A|----------------------------------------------------|
E|-2-0-5-4-2-0--2-0-5-4-2-0---------------------------|

3.
G|-------------------------------6-4----------6--9--9-|
D|---------------------------0-0-----7-6--0-0---------|
A|----------------------------------------------------|
E|-2-0-5-4-2-0--2-0-5-4-2-0---------------------------|

Verse
"Give me a reason..."
4.
G|---------------------------------------------------------------------------------|
D|---------------------------------------------------------------------------------|
A|---------------------0-00-0-00-5-55-5-55---------------------0-00-0-00-5-55-5-55-|--x2
E|-2-22-2-22-2-22-2-22---------------------2-22-2-22-2-22-2-22---------------------|

Pre-Chorus
"In time..."
5.
G|-----------------------------------------------|
D|-----------------------------------------------|
A|-----------------------------------------------|
E|-2-0-2---0-0-5-0-5---0-0-2-0-2--2-0~--7~-5~-0~-|

6.
G|--------------------------------------|
D|--------------------------------------|
A|--------------------------------------|
E|-2-0-2---0-0-5-0-5---0-0-2-0-2--2-0~--|

Chorus
"This is out of control..."
7.
G|-----------------------------------------------------------------------------------|
D|-------02-00------------------------------------02-00------------------------------|
A|----02-------44-22-00-22-00------------------02-------44-22-00-22-00---------------|
E|-02-------------------------44-02-022-022-02-------------------------44-02-022-022-|

8.
G|--------------------------------------------------------------------------|
D|-------02-00------------------------------------02-00---------------------|
A|----02-------44-22-00-22-00------------------02-------44-22-00-22-00------|
E|-02-------------------------44-02-022-022-02-------------------------44-0-|

"With intentions, what intentions?..."
9.
G|-------------------------|
D|-------------------2-222-|
A|-------------------------|
E|-2-222-0-000-2-222-------|

Outro
10.
G|-------------------------------6-4----------6-4-----|
D|---------------------------0-0-----7-6--0-0-----7-6-|
A|----------------------------------------------------|
E|-2-0-5-4-2-0--2-0-5-4-2-0---------------------------|

11.
G|-------------------------------6-4----------6--9--9-|
D|---------------------------0-0-----7-6--0-0---------|
A|----------------------------------------------------|
E|-2-0-5-4-2-0--2-0-5-4-2-0---------------------------|

Verse
"Its like a bad dream..."
12.
G|---------------------------------------------------------------------------------|
D|---------------------------------------------------------------------------------|
A|---------------------0-00-0-00-5-55-5-55---------------------0-00-0-00-5-55-5-55-|--x2
E|-2-22-2-22-2-22-2-22---------------------2-22-2-22-2-22-2-22---------------------|

Pre-Chorus
"In time..."
13.
G|-----------------------------------------------|
D|-----------------------------------------------|
A|-----------------------------------------------|
E|-2-0-2---0-0-5-0-5---0-0-2-0-2--2-0~--7~-5~-0~-|

14.
G|--------------------------------------|
D|--------------------------------------|
A|--------------------------------------|
E|-2-0-2---0-0-5-0-5---0-0-2-0-2--2-0~--|

Chorus
"This is out of control..."
15.
G|-----------------------------------------------------------------------------------|
D|-------02-00------------------------------------02-00------------------------------|
A|----02-------44-22-00-22-00------------------02-------44-22-00-22-00---------------|
E|-02-------------------------44-02-022-022-02-------------------------44-02-022-022-|

16.
G|--------------------------------------------------------------------------|
D|-------02-00------------------------------------02-00---------------------|
A|----02-------44-22-00-22-00------------------02-------44-22-00-22-00------|
E|-02-------------------------44-02-022-022-02-------------------------44-0-|

"With intentions, what intentions?..."
17.
G|-------------------------|
D|-------------------2-222-|
A|-------------------------|
E|-2-222-0-000-2-222-------|

Outro
18.
G|-----------------------------|
D|-----------------------------|
A|-----------------------------|
E|-2-2~--------14~--------14\2-|

Bridge
19.
G|-----------------------------------------------------------------------------|
D|-----------------------------------------------------------------------------|
A|------------5--55--55------------5--55--75------------5--55--55------0-00----|
E|-2-22-5--55-----------2-22-5--55-----------2-22-5--55-----------2-22------0~-|

"This is out of control..."
20.
G|------------------------------------------------|
D|------------------------------------------------|
A|----------------55-44-22-00-22-00---------------|
E|----------------------------------44-0-2~-222-0-|

Chorus
"This is out of control..."
21.
G|-----------------------------------------------------------------------------------|
D|-------02-00------------------------------------02-00------------------------------|
A|----02-------44-22-00-22-00------------------02-------44-22-00-22-00---------------|
E|-02-------------------------44-02-022-022-02-------------------------44-02-022-022-|

22.
G|--------------------------------------------------------------------------|
D|-------02-00------------------------------------02-00---------------------|
A|----02-------44-22-00-22-00------------------02-------44-22-00-22-00------|
E|-02-------------------------44-02-022-022-02-------------------------44-0-|

"With intentions, what intentions?..."
23.
G|-------------------------|
D|-------------------2-222-|
A|-------------------------|
E|-2-222-0-000-2-222-------|

Outro
24.
G|-------------------------------|
D|----------------0~--0~--0~--0~-|
A|-------------------------------|
E|-2~--2~--2~--2~----------------|

25.
G|-------------------------------6-4----------6-------|
D|---------------------------0-0-----7-6--0-0----7--7-|
A|----------------------------------------------------|
E|-2-0-5-4-2-0--2-0-5-4-2-0---------------------------|

26.
G|-------------------|
D|-------------------|
A|-------------------|
E|-2~----------------|

Lyrics:

Give me a reason
I'm on my knees and
I'm betting anything will keep me alive
I'm treading water
your mind is stronger
I'm faking anything that I can't define
You're broken hearts gone
And now your all alone
You're giving everything and now you'll break mine
I'm saying sorry
The words are nothing
Your voice is poison
And it gets worse
In time

This is out of control
We are still locked down today
We keep playing along
With intentions
What intentions?

It's like a bad dream, another story
That's running circles in the back of my mind
See now it's ok to give me nothing
'Cause I was using you so I could get mine
You know I wanted to see only you
But you were trying just to keep me away
We're realizing, We're patronizing
So now its over but the past it remains
In time

These imperfections make it hurt
And you're far away now but I know you're coming home

This is out of control
We can't make it on our own
We keep playing along just to leave us more alone
This is out of control
This happy ending's getting old
But we're playing along
With intentions

____________________________________________________________

2. Let Fate Decide

Tuning:EADG

| ~x : Ring and mute right away

Intro
1.
G|-------------------------------------|
D|-------------------------------------|
A|-------------------------------------|
E|-444~x----444~x----000~x----222~x----|

2.
G|-----4-3-------------4-3-------------8-7-------------4-3---------|
D|---------4-3-4-1---------4-3-4-1---------8-7-8-4---------4-1-4-6-|
A|-----------------------------------------------------------------|
E|-444-------------444-------------000-------------222-------------|

Verse
"The first and last time"
3.
G|-------------------------------------|------------------------------------------|
D|-------------------------------------|------------------------------------------|
A|-------------------------------------|------------------------------------------|
E|-444~x----444~x----000~x----222~x----|-444~x----444~x----000~x----222~x--00-7\1-|

Pre-Chorus
"We'll throw away..."
4.
G|------------------------------------------------------------|
D|------------------------------------------------------------|
A|------2-1-----------2-4-2-1-------2/4-2------1-1~-6-4~-2----|
E|-0-0~-----2-0--2-2~----------4-4~-------4-2--------------2x-|

Chorus
"All I can say..."
5.
G|-----------------------------------------------------------------------|
D|-----------------------------------------------------------------------|
A|---------------------------2-1-2-4-6-4-2-4-----------------------------|
E|-4444444--0000000--2222222------------------4444444--0000000--2222222x-|

Verse
"My mind has settled..."
6.
G|-------------------------------------|------------------------------------------|
D|-------------------------------------|------------------------------------------|
A|-------------------------------------|------------------------------------------|
E|-444~x----444~x----000~x----222~x----|-444~x----444~x----000~x----222~x--00-7\1-|

Pre-Chorus
"You'll take away..."
7.
G|------------------------------------------------------------|
D|------------------------------------------------------------|
A|------2-1-----------2-4-2-1-------2/4-2------1-1~-6-4~-2----|
E|-0-0~-----2-0--2-2~----------4-4~-------4-2--------------2x-|

Chorus
"All I can say..."
8.
G|-----------------------------------------------------------------------|
D|-----------------------------------------------------------------------|
A|---------------------------2-1-2-4-6-4-2-4-----------------------------|
E|-4444444--0000000--2222222------------------4444444--0000000--2222222x-|

Outro
9.
G|-----------------------------------------|
D|-----------------------------------------|
A|-----------------------------6-4-2-------|--x2
E|-000x----000x----222x----222-------4-2-0-|

"You said your working for it..."
10.
G|-----------------------------------------|
D|-----------------------------------------|
A|-----2-2-----2-2-----2-2-----6-4-2-------|
E|-000--2--000--2--222--2--222-------4-2-0-|

11.
G|--------------------------------|
D|--------------------------------|
A|-----2-2-----2-2-----2-2--------|
E|-000--2--000--2--222--2--222-2x-|

Chorus
"All I can say..."
12.
G|--------------------------------------------------------------------------------------|
D|--------------------------------------------------------------------------------------|
A|---------------------------2-1-2-4-6-4-2-4----------------------------222-222-111-444-|
E|----------0000000--2222222------------------4444444--0000000--2222222-----------------|

"All I can say..."
13.
G|------------------------------------------------------------|
D|---------------------------------4-2------------------------|
A|-----6-4-2-1-------6-4-2-1-----------4-2----2-1-2-4-6-4-2-4-|
E|-444---------2-444---------2-000---------2------------------|

"Im looking back at my regrets..."
14.
G|--------------------------------------------|
D|---------------------------------4-2--------|
A|-----6-4-2-1-------6-4-3-1-----------4-2----|
E|-444---------2-444---------2-000---------2x-|

Lyrics:

The first and last time
Traces of life and look what comes between
I'm simple-minded
You're always trying to win these selfish games

We'll throw away what we're looking for

All I can say is "It's my chance to walk away"
Even I'll let fate decide
You're breaking off like something's in the way
Is it us?

My mind has settled
I'm a living shadow in doubt of shape or size
So lately you answer to sort this out
I know I'll break some time

You'll take away all that I'm asking for

You said you're working for it, but are you fighting for it?
You're just igniting the flame, but it's going down.
You said you're working for it, but are you fighting for it?
You're just igniting the flames.

All I can say is "I know I'll find a way"
Even I'll let fate decide
I'm looking back at my regrets, I'm still the same

___________________________________________________________

3. A Simple Line

Tuning: Drop D (DADG)

Verse
"Is anybody listening?"
1.
G|-------------------------------------------------------------------------|
D|-------------------------------------------------------------------------|
A|------------33333333----------------------------33333333-----------------|
D|-6/77777777----------33333333-555555-6/77777777----------33333333-555555-|

"The label means everything..."
2.
G|-----------------------------------------------------------------------|
D|-----------------------------------------------------------------------|
A|-----------333-------------------------------333-----------------------|
D|-6/777-222-----555-33333333-555555-6/777-222-----555-33333333/55555555-|

Pre-Chorus
"This phase will surely die..." 
3.
G|-----------------------------------------|
D|-----------------------------------------|
A|-----------------------------------------|
D|-33/55/777-33/55/777-33/55/777-4444-3333-|

Chorus
"Listen with ears, not your eyes..."
4.
G|---------------------------------------------------------------------------|
D|---------------------------------------------------------------------------|
A|---------------------------------------------------------------------------|
D|-0000-1111-3333-5555-0000-1111-3333-5555-0000-1111-3333-4444-5555-1111-3~--|

Verse
"An audible tragedy..."
5.
G|-------------------------------------------------------------------------|
D|-------------------------------------------------------------------------|
A|------------11111111----------------------------11111111-----------------|
D|-4/55555555----------11111111-333333-4/55555555----------11111111-333333-|

"What happened to the melody?
6.
G|-----------------------------------------------------------------------|
D|-----------------------------------------------------------------------|
A|-----------111-------------------------------111-----------------------|
D|-4/555-000-----333-11111111-333333-4/555-000-----333-11111111-33333333-|

Pre-Chorus
"This phase will surely die..."
7.
G|-----------------------------------------|
D|-----------------------------------------|
A|-----------------------------------------|
D|-11/33/555-11/33/555-11/33/555-2222-1111-|

Chorus
"Listen with ears, not your eyes..."
8.
G|---------------------------------------------------------------------------------|
D|---------------------------------------------------------------------------------|
A|-3333-4444-6666-8888-3333-4444-6666-8888-3333-4444-6666-7777-8888-4444-6666-6666-|
D|---------------------------------------------------------------------------------|

Bridge
                                  "What goes up..."
9.
G|------------------------------------------------|
D|------------------------------------------------|
A|-----------------------------------------333333-|--x3
D|-3-xx-3p2h3-xx-3p2h3-xx-3p2h3-3-5-666666--------|

"Wrong!!.."
10.
G|---------------------------------------------------------|
D|---------------------------------------------------------|
A|-444444-666666-888888-888888-444444-666666-888888-888888-|
D|---------------------------------------------------------|

11.
G|------------------------------------------------------|
D|------------------------------------------------------|
A|-444444-666666-888888-888888-444444-666666-8-8-8-8-8x-|
D|------------------------------------------------------|

Chorus
"Listen with ears, not your eyes..."
12.
G|---------------------------------------------------------------------------------|
D|---------------------------------------------------------------------------------|
A|---------------------------------------------------------------------------------|
D|-0000-1111-3333-5555-0000-1111-3333-5555-0000-1111-3333-4444-5555-1111-3333-3333-|

Outro
13.
G|----------------------------------------------------------------------------|
D|----------------------------------------------------------------------------|
A|----------------------------------------------------------------------------|
D|-5-xx-5p3h5-xx-5p3h5-xx-5p3h5-xx-5p3h5-xx-5p3h5-xx-5p3h5-xx-5p3h5-xx-5p3h5~-|

Lyrics:

Is anybody listening our ears deceive
How easily do we believe the hype machine?
The label means everything it's all for show
I wanna hear the awful screams
Everything contrived and laughable
This phase will surely die just close your eyes

Listen with ears not your eyes such a simple line
Try to escape from the heart, the freedom you will find
Listen with ears not your eyes let the music play
Truth throughout all your life

An audible tragedy upon our sleeves
Becoming a dying breed, we're obsolete
What happened to the melody?
There is no bar so easy to imitate, perfectly
Cuz thinking is much too hard
This phase will surely die just close your eyes

What goes up most come down to take the fall
Gravity will decide who stays or goes
When the crowds realize that they've been wrong

__________________________________________________________

4. Interlude 

Tuning: Drop D (DGCF)

0:08
1.
|-----------------------------|
|-----------------------------|
|---------------3~---------2~-|
|-0~----333x----------332x----|

2.
|-----------------------------|
|-----------------------------|
|---------------3~---------2~-|
|-0~----333x----------332x----|

3.
|-----------------------------|
|-2~--------------------------|
|---------------3~---------2~-|
|-------333x----------332x----|

4.
|-----------------------------|
|-2~--------------------------|
|---------------3~---------2~-|
|-------333x----------332x----|

0:41
5.
|--------------------|
|----------2~-2/5420-|
|-3~-3/5~-5----------|
|--------------------|

6.
|--------------------|
|----------2~-2/5420-|
|-3~-3/5~-5----------|
|--------------------|

7.
|--------------------|
|----------2~-2/5420-|
|-3~-3/5~-5----------|
|--------------------|

8.
|--------------------|
|----------2~--------|
|-3~-3/5~-5----------|
|--------------------|

________________________________________________

5. Never Learn

Tuning: EADG

Intro
1.
G|---------4-6-8-9-9-8-8-6------------------------|
D|-------6------------------7-7-7---7-9-9-9-9-----|
A|-4-4-4--------------------------7-----------9-7-|--x4
E|------------------------------------------------|

Verse
"Wait til you open that thought..."
2.
G|-----------------------------------------|
D|-----66-6--7-6-4-2-----------------------|
A|-44-4--------------4-2-0x--2-2-2x-0-0-0x-|
E|-----------------------------------------|  
                     |   
                     |--x2                      
3.                   |
G|-----------------------------------------|
D|-----66-6--4-2---7-6---------------------|
A|-44-4----------4-----4-2x--2-2-2x-0-0-0x-|
E|-----------------------------------------|

Pre-Chorus
"Let go, let go..."
4.
G|---------------------|
D|---------------------|
A|---------------------|
E|-2222-2222-4444-7777-|

Chorus
"Will you save yourself the doubt?"
5.
G|-----------------------------------------------------------------|
D|-------------------------2-1-2-4-------------------------2-1-2-4-|
A|-0-00-00-2-22-22-4-44-44---------0-00-00-2-22-22-4-44-44---------|--x2
E|-----------------------------------------------------------------|

Outro
6.
G|-------------|
D|-------------|
A|-2-2-4-6-6-6-|
E|-------------|

7.
G|---------4-6-8-9-9-8-8-6------------------------|
D|-------6------------------7-7-7---7-9-9-9-9-----|
A|-4-4-4--------------------------7-----------9-7-|--x3
E|------------------------------------------------|

Verse
"Listen, understand, understand..."
8.
G|------------------------------------------------------------------|
D|------------------------------------------------------------------|
A|-44-444-444-444-422-222-200-000-044-444-444-444-422-222-200-000-0-|
E|------------------------------------------------------------------|

"Poison are the words you inject..."
9.
G|-------------------------------------------------|
D|----------2-4----------2-4----------2-4--4-2-4-2-|
A|-4~-0-2-4-----4~-0-2-4-----2~-0-2-4--------------|--x2
E|-------------------------------------------------|

Pre-Chorus
"Let go, let go..."
10.
G|---------------------------------|
D|---------------------------------|
A|-------------------------2-2-2-2-|
E|-2-2-2-2-2-2-2-2-4-4-4-4---------|

Chorus
"Will you save yourself the doubt?"
11.
G|-----------------------------------------------------------------|
D|-------------------------2-1-2-4-------------------------2-1-2-4-|
A|-0-00-00-2-22-22-4-44-44---------0-00-00-2-22-22-4-44-44---------|--x2
E|-----------------------------------------------------------------|

Outro
12.
G|---------------------------------------------|
D|---------------------------------------------|
A|-0~-------------------------------2~----2-2x-|
E|---------------------------------------------|

Bridge
13.
G|-------------------------------------|
D|-------------------------------------| Just play till Chorus,
A|-4~-------6~-2-2-2-0~-------2~---1-2-| Im too lazy to count...
E|----0-0-0-------------0-0-0----0-----|

2:27
14.
G|-----------------|
D|-----------------|
A|-1-2-2-2-1-2-2-2-|
E|-----------------|

Chorus
"Will you save yourself the doubt?"
15.
G|-----------------------------------------------------------------|
D|-------------------------2-1-2-4-------------------------2-1-2-4-|
A|-0-00-00-2-22-22-4-44-44---------0-00-00-2-22-22-4-44-44---------|--x2
E|-----------------------------------------------------------------|

Outro
16.
G|---44--44-4x---44--44-4--6~--|
D|-----------------------------|
A|-22--22--2---22--22--2-------|
E|-----------------------------|

Bridge
17.
G|---------------------------------------------------------------------------------|
D|---------------------------------------------------------------------------------|
A|-4~---1-2-4-6~-2-2-2-0~-------2~-----1-2-4~---1-2-4-6~-2-2-2-0~-------2~-----1-2-|
E|----0-------------------0-0-0----0-0--------0-------------------0-0-0----0-0-----|

Lyrics:

Wait 'til you open that thought
Tear out that page in your mind
Restraint is a virtue so last
Draining how you run your mouth dry

Let go, let go, let go

Will you save yourself the doubt?
Some people never learn to shut their mouths
You need the world to know
They're wrong, we're wrong, you're right
Who needs a mind, when you're in that spotlight
You'll never learn

Listen, understand, understand
Reason never came to your head
Poison are the words you inject
Vexing till your last fucking breath

Let go, let go, let go

Think before, you open that door

______________________________________________________-

6. Bitter Season

Tuning: EADG

Intro
1.
G|-------------------------------------------------|
D|-------------------------------------------------|
A|-0~----3~----------------0~----3~----------------|
E|-------------1~----3~----------------1~----3~----|

Verse
"This bitter season colder than reason..."
2.
G|--------------------------------------------------|
D|-------------------------------5-3-2--------------|
A|-00x--033x--3------------00x--0-------------------|--x2
E|-------------11x--133x--3------------33x--311x--1-|

3.
G|---------------------------------------------------------|
D|---------------------------------------------------------|
A|-00~----33~------------------00~----33~------------------|
E|---------------11~----33~------------------11~----33~----|

"So grieve your power..."
4.
G|--------------------------------------------------|
D|-------------------------------5-3-2--------------|
A|-00x--033x--3------------00x--0-------------------|--x2
E|-------------11x--133x--3------------33x--311x--1-|

Pre-Chorus
5.
G|-------------|
D|-------------|
A|-------------|
E|-1-1-1-3-3-3-|

Chorus
"This is my time..."
6.
G|-----------------------------------------|
D|------3333----------------3333-----------|
A|-3333------0000------3333------0000------|--x2
E|----------------3333----------------3333-|

"Cus this is mine..."
7.
G|-------------|
D|-------------|
A|-------------|
E|-1-1-1-3-3-3-|

Outro
8.
G|-------------------------------------------------|
D|-------------------------------------------------|
A|-0~----3~----------------0~----3~----------------|
E|-------------1~----3~----------------1~----3~----|

Verse
"Go walk your city..."
9.
G|--------------------------------------------------|
D|-------------------------------5-3-2--------------|
A|-00x--033x--3------------00x--0-------------------|--x2
E|-------------11x--133x--3------------33x--311x--1-|

Pre-Chorus
10.
G|-------------|
D|-------------|
A|-------------|
E|-1-1-1-3-3-3-|

Chorus
"This is my time..."
11.
G|-----------------------------------------|
D|------3333----------------3333-----------|
A|-3333------0000------3333------0000------|--x2
E|----------------3333----------------3333-|

"Cus this is mine..."
12.
G|-------------|
D|-------------|
A|-------------|
E|-1-1-1-3-3-3-|

Outro
13.
G|------------------------------------------------------|
D|----------------------0-2-3---------------5-3-2-------|
A|-0~--00--------3~--33---------------------------5-3-2-|--x2
E|--------3~--33--------------1~--11-1~--11-------------|

Bridge
14.
G|----------------------------------------------------|
D|-------------------00022233-------------5-3-2-------|
A|-0-000-------3-333----------------------------5-3-2-|
E|-------3-333----------------1-111-1-111-------------|

15.
G|--------------|
D|--------------|
A|-0~--------0x-|
E|--------------|

Chorus
"This is my time..."
16.
G|-----------------------------------------|
D|------3333----------------3333-----------|
A|-3333------0000------3333------0000------|--x2
E|----------------3333----------------3333-|

"Cus this is mine..."
17.
G|-------------|
D|-------------|
A|-------------|
E|-1-1-1-3-3-3-|

Outro
18.
G|---------------------------------------------|
D|---------------------------------------------|
A|-00x--33x------------00x--33x------------00x-|
E|-----------11x--33x------------11x--33x------|

Lyrics:

This bitter season, colder than reason
Our obvious hearts still burn
Where's your passion? Is it just fashion?
Yet struck by a star as they burn

So grieve your power, take back your memories
'Cause you don't deserve that love
Wishful Thinking hopes that you'll soon see
I gave up on you enough

This is my time, so don't wake me up
And this is my day, living in grace
And all my energy spreading our word
This is my time, so don't wake me up
'Cause this is mine

Go walk your city, and don't think about me
'Cause you've dropped that piece of your heart
Buildings, towers, living is useless
No skies, no beauty, no soul

Close your eyes, your visions are perfect
Up from your eyes, an endless illusion

______________________________________________

7. Mental Games

Tuning: EADG

Intro
1.
G|--------------------------------------------|
D|--------------------------------------------|
A|-0-0~--0-2-3-33~--3-2-----------------------|--x2
E|----------------------3-33~--3-2-1-11~--1-3-|

Verse
"As long as I remember we walked as one..."
2.
G|-----------------------------------------|
D|-----------------------------------------|
A|-0-0~--0-2-3~----3-2---------------------|--x4
E|---------------------3~----3-2-1~----1-3-|

Pre-Chorus
"Only one shot for the dream..."
3.
G|-----222-000-------------222-555-0000000-----222-000-------------222-5---------|
D|-333---------2222222-333-----------------333---------2222222-333---------------|
A|-------------------------------------------------------------------------------|
E|------------------------------------------------------------------------33x-3x-|

Chorus
"These mental games all have rules to break..."
4.
G|--------------------------------------|
D|------------------------0-------------|
A|------------------3-2-3---3-----------|--x2
E|-1111-111-111-111-----------3-333-333-|

5.
G|------------------------------------------------------------------------|
D|------------------------0-------------0000000000000000-3333333333333333-|
A|------------------3-2-3---3---------------------------------------------|
E|-1111-xxx-111-111-----------3-333-333-----------------------------------|

Outro
6.
G|--------------------------------------------|
D|--------------------------------------------|
A|-0-0~--0-2-3-33~--3-2-----------------------|--x2
E|----------------------3-33~--3-2-1-11~--1-3-|

Verse
"Undecided problems, dont see, dont speak..."
7.
G|-----------------------------------------|
D|-----------------------------------------|
A|-0-0~--0-2-3~----3-2---------------------|--x2
E|---------------------3~----3-2-1~----1-3-|

"This is all Ive wanted for so many years..."
8.
G|--------------------------------------|
D|--------------------------------------|
A|-0-000000-3-333333--------------------|
E|-------------------3-3333333-1-111111-|

Pre-Chorus
"Only one shot for the dream..."
9.
G|-----222-000-------------222-555-0000000-----222-000-------------222-5---------|
D|-333---------2222222-333-----------------333---------2222222-333---------------|
A|-------------------------------------------------------------------------------|
E|------------------------------------------------------------------------33x-3x-|

Chorus
"These mental games..."
10.
G|--------------------------------------|
D|------------------------0-------------|
A|------------------3-2-3---3-----------|--x2
E|-1111-111-111-111-----------3-333-333-|

11.
G|------------------------------------------------------------------------|
D|------------------------0-------------0000000000000000-3333333333333333-|
A|------------------3-2-3---3---------------------------------------------|
E|-1111-xxx-111-111-----------3-333-333-----------------------------------|

"We'll leave today with the windows down..."
12.
G|---------------------------------------------------------------------|
D|----------5-3-2-0----------3-2-0--------------0-2-3----------5-3-2-0-|
A|-33333333---------00000000-------3----------3------------------------|--x2
E|-----------------------------------33333333---------11111111---------|

Pre-Chorus
"Only one shot for the dream..."
13.
G|-----222-000-------------222-555-0000000-----222-000-------------222-5---------|
D|-333---------2222222-333-----------------333---------2222222-333---------------|
A|-------------------------------------------------------------------------------|
E|------------------------------------------------------------------------33x-3x-|

Chorus
"These mental games..."
14.
G|--------------------------------------|
D|------------------------0-------------|
A|------------------3-2-3---3-----------|--x2
E|-1111-111-111-111-----------3-333-333-|

15.
G|------------------------------------------------------------------------|
D|------------------------0-------------0000000000000000-3333333333333333-|
A|------------------3-2-3---3---------------------------------------------|
E|-1111-xxx-111-111-----------3-333-333-----------------------------------|

"No theres nothing I want more..."
16.
G|------------------------------------|
D|-0000000000000000-33333333-55555555-|
A|------------------------------------|
E|------------------------------------|

Outro
17.
G|--------------------------------------------|
D|--------------------------------------------|
A|-0-0~--0-2-3-33~--3-2-----------------------|--x2
E|----------------------3-33~--3-2-1-11~--1-3-|

18.
G|---------------------|
D|---------------------|
A|-0-0~----------------|
E|---------------------|

Lyrics:

As long as I remember we walked as one
Embracing one another we carried on
An underrated friendship would separate us all
We found each other's secrets and moved along

Only one shot for the dream
We're burning bridges so it seems

These mental games all have rules to break
We've all become what we've learned to hate
I did all you ever wanted from me
Where did I go wrong? Cause there's nothing I want more

Undecided problems don't see don't speak
Now I ask a question how much this means
This is all I've wanted for so many years
Sick and tired of waiting no love no tears

We'll leave today with the windows down
And ride away like we own this town
And living on our own
These nights are fading away in the distance
An open road in the darkness with a street sign
That says "Whoa!!"

__________________________________________

8. Interlude

Tuning: Drop D (DGCF)

1.
|-------------------------------|
|-------------------------------|
|-------------------------------|----|
|-0000-00-00-00-0000-00-00-00---|    |
                                     |
2.                                   |-- x4
|-------------------------------|    |
|-------------------------------|    |
|---------------5555-55-55-55\1-|----|
|-3333-33-33-33-----------------|  

0:38
3.
|-----|
|-----|
|-7x--|
|-----|

4.
|---------------------------------------|
|----------------------------------5555-|
|---------------------55555555-5555-----|
|-3/88888888-88888888-------------------|

5.
|-----------------------------------|
|-----------------------------------|
|-----------------------------------|
|-0000000000000000-0000000000000000-|

6.
|-----------------------------------|
|-----------------------------------|
|-3333333333333333-5555555555555555-|
|-----------------------------------|

7.
|-----------------------------------|
|--------------------------55404~---|
|-----------------------------------|
|-0-0-0-0-0-0-0-0--0-0-0-0----------|

8.
|-----------------------------------|
|--------------------------55404~---|
|-3-3-3-3-3-3-3-3--5-5-5-5----------|
|-----------------------------------|

9.
|-------------------------------|
|-------------------------------|
|-------------------------------|
|-0000-00-00-00-0000-00-00-00---|    
                                     
10.                                   
|-------------------------------|    
|-------------------------------|    
|---------------5555-55-55-55\1-|
|-3333-33-33-33-----------------|  

11.               
|------------|  
|------------|   
|------------|   
|-0000-00-00-|  

 1:13_________________________________________________________
|                                                            |
|    12.                         13.                         |
|   |----------------------|    |-----------------------|    |
|   |----------------------|    |-----------------------|    |
|   |----------------------| OR |-7~--7~----7~------7~--|    |
|   |-0~--0~----0~------0~-|    |-----------------------|    |
|____________________________________________________________|   

______________________________________________________________

9. Drowning

Tuning: Drop D (DGCF)

Intro
1.
|--------------------------|
|--------------------------|
|-333----------------------|
|-----3-555-3-000-3-000-3--|

2.
|--------------------------|
|--------------------------|
|-333----------------------|
|-----3-555-3-000-3-000-3x-|

3.
|--------------------------|
|--------------------------|
|-3------------------------|
|-----3-555-3-000-3-000-3--|

4.
|--------------------|
|-3333-3333-----0257-|
|-------------02-----|
|-----------03-------|

Verse
"How do they know.."
5.
|-----|
|-----|
|-33x-|
|-----|

"Do they feel anything.."
6.
|------------------7h9p7--|
|-----------------------7-|
|-33x--22x----------------|
|-----------00x-----------|

Pre-Chorus
"And look down to the rocks.."
7.
|---------------------------------------|
|----------------------------------0257-|
|-33x--22x-----------------------02-----|
|-----------55x--33x-1111-1111-03-------|

Verse
"See how they walk unaware.."
8.
|-------------------------------------------------|
|-------------------------------------------------|
|-33333-22222-------------33333-22222-------------|
|-------------00000-00000-------------00000-00000-|

Pre-Chorus
"You will find.."
9.
|--------------------------------------------|
|---------------------------------------0257-|
|-33333-22222-------------------------02-----|
|-------------55555-33333-1111-1111-03-------|

Chorus
"I will never hold you.." x2
10.
|-------------------------|
|-222---------555-5-444-4-|
|-----2-333-5-------------|
|-------------------------|

"Just another anchor in your life.."
11.
|--------------------------------------------|
|-222-----------------------------------0257-|
|-----2-333---------555-5-------------02-----|
|-----------2-333-3-------1111-1111-03-------|

Verse
"I'm am afraid.."
12.
|-------------------------------------------------|
|-------------------------------------------------|
|-33333-22222-------------33333-22222-------------|
|-------------00000-00000-------------00000-00000-|

Pre-Chorus
"Underneath every tree..."
13.
|--------------------------------------------|
|---------------------------------------0257-|
|-33333-22222-------------------------02-----|
|-------------55555-33333-1111-1111-03-------|

Chorus
"I will never hold you.." x2
14.
|-------------------------|
|-222---------555-5-444-4-|
|-----2-333-5-------------|
|-------------------------|

"Just another anchor in your life.."
15.
|--------------------------------------------|
|-222-----------------------------------0257-|
|-----2-333---------555-5-------------02-----|
|-----------2-333-3-------1111-1111-03-------|

Outro.
16.
|-------------------------------|
|-------------------------------|
|------------------------3-3-3~-|  x2
|-0-0-0~--2-2-2~--3-3-3~--------|

Bridge
"You're gasping for.."
17.
|----------------------------------------|
|----------------------------------------|
|------------------------333-333-222-222-|
|-000x--222x--333x--555x-----------------|

"You're crying out.."
18.
|------------------------------------------|
|----------------------------------7502----|
|------------------------333-333-2-----02--|---¦
|-000x--222x--333x--555x-----------------3-|   ¦
                                               ¦--I'm not
19.                                            ¦  100% sure
|----------------------------------54------|   ¦  about these
|------------------------------------54----|---¦  two things..
|------------------------333-333-2-----532-|      But they 
|-000x--222x--333x--555x-------------------|      sound good.. :D

20.
|----------------------------------------|
|----------------------------------------|
|------------------------333-333-222-222-|
|-000x--222x--333x--555x-----------------|

Verse
"I won't hold you..."
21.
|---------------------------|
|--2~------------2~---------|
|------3~------------3~-----|
|----------3~------------3~-|

Pre-Chorus
"Take a breath to save your life.."
22.
|-------------------------------------|
|--2~----------------------------0257-|
|------3~------5~--------------02-----|
|----------3~------1111-1111-03-------|

Chorus
"I will never hold you.." x2
23.
|-------------------------|
|-222---------555-5-444-4-|
|-----2-333-5-------------|
|-------------------------|

"Just another anchor in your life.."
24.
|--------------------------------------------|
|-222-----------------------------------0257-|
|-----2-333---------555-5-------------02-----|
|-----------2-333-3-------1111-1111-03-------|

"I won't hold you.." x2
25.
|-------------------------|
|-222---------555-5-444-4-|
|-----2-333-5-------------|
|-------------------------|

"Just an anchor in your life.."
26.
|--------------------------------------------|
|-222-----------------------------------0257-|
|-----2-333---------555-5-------------02-----|
|-----------2-333-3-------1111-1111-03-------|

Lyrics

How do they know what is love what is real?
Do they feel anything when they step to the edge?
And look down to the rocks that they'll met
If they fall from their ground
See how they walk unaware of the steps
That they take in a dance on a line as the dead lose control
You will find what it means to have fallen in love

I will never hold you underneath for me
Maybe only just enough so you can breathe
Just another anchor in your life
Drowning over my life

I am afraid love is blind in a way
I do not wanna drag you along to a grave meant for me
Underneath every tree at the bottom of the lake

You're gasping for a taste of air
With a hand I hold you down
You're crying out won't save you now
Everything will end with me

______________________________________________________

10. Questions And Answers

Tuning: Drop D  (DADG)

Intro
1.
G|-------------------------------------------------------|
D|-------------------------------------------------------|
A|-------------------------------------------------------|
D|-00000000-00000000-44444444-44444444-00000000-00000000-|

Verse
"Im searching for answers..."
2.
G|---------------------------------------------------------------|
D|---------------------------------------------------------------|
A|---------------------------------------------------------------|
D|-44----44-44----00----00-00----44----44-44----00----00-00----2-|

"So much to offer..."
3.
G|---------------------------------------------------------------|
D|---------------------------------------------------------------|
A|---------------------------------------------------------------|
D|-44----44-44----00----00-00----2~-------------0~---------------|

Chorus
"Where are words that comfort?"
4.
G|-----------------------------------------|
D|-----------------------------------------|
A|-0000-0000-----------------00------------|--x2
D|-----------2222-2222-444-22--2-0000-0000-|

Outro
5.
G|--6--9~---6--7~--7-6-4-|
D|-4-4-----4-4-----------|
A|-----------------------|--x3
D|-----------------------|

Verse
"If lighting a candle..."
6.
G|---------------------------------------------------------------|
D|---------------------------------------------------------------|
A|---------------------------------------------------------------|
D|-44----44-44----00----00-00----44----44-44----00----00-00----2-|

"Some days are better..."
7.
G|---------------------------------------------------------------|
D|---------------------------------------------------------------|
A|---------------------------------------------------------------|
D|-44----44-44----00----00-00----2~-------------0~---------------|

Chorus
"Where are words that comfort..."
8.
G|-----------------------------------------|
D|-----------------------------------------|
A|-0000-0000-----------------00------------|--x2
D|-----------2222-2222-444-22--2-0000-0000-|

Bridge
9.
G|------------------|
D|-------2----------|
A|---4-2---4--------|--x2
D|-4----------2-4-4-|

10.
G|------------------------------------------------------------------|
D|---2~--------2-----------------------------------------2----------|
A|-4-------4-2---4-----------7\0---------------------4-2---4--------|
D|-------4----------2-4-4--------00000000-22222222-4----------2-4-4-|

"Our questions arent answered..."
11.
G|------------------------------------|
D|-------------------------2----------|
A|---------------------4-2---4--------|--x2
D|-00000000-22222222-4----------2-4-4-|

12.
G|-------------------|
D|-------------------|
A|-------------------|
D|-0-0~-----2-2~-2-2-|

Verse
"If lighting a candle..."
13.
G|-----------------------------------------|
D|-----------------------------------------|
A|-------------------------------0~-2~-----|
D|-4~--------0~--------4~--------------0~x-|

Chorus
"Where are words that comfort?"
14.
G|-----------------------------------------|
D|-----------------------------------------|
A|-0000-0000-----------------00------------|--x2
D|-----------2222-2222-444-22--2-0000-0000-|

"Say goodbye..."
15.
G|---------------------|
D|---------------------|
A|-------00------------|
D|-444-22--2-0000-0000-|

Outro
16.
G|-------------------------------------|
D|-------------------------------------|
A|-------------------------------------|--x3
D|-44444444-44444444-00000000-00000000-|

17.
G|-------------------------------------|
D|-------------------------------------|
A|-------------------0~---2~-----------|
D|-44444444-44444444----------0~-------|

Lyrics:

I'm searching for answers I will never see
Is there a reason why our children bleed
So much to offer then you had to leave
These silent nights our deafening

Where are words that comfort?
When you try to find, try to find where to find it
Forever you'll be with us
I'll never say goodbye, say goodbye, say goodbye

If lighting a candle means calling on memories
I'd burn down the forest just to hear you speak
Some days are better and others I'm on my knees
Made you listen to grace with speed

Where are words that comfort?
When you try to find, try to find where to find it
Forever you'll be with us
I'll never say goodbye, say goodbye, say goodbye

So many questions never leave
And where are the answers that we seek?
Why do our children bleed?
Our questions aren't answered again
Oh yeah yeah yeah

___________________________________________________________

11. Life Songs

Tuning: EADG

Intro
1.
G|-----------------------------------------|
D|-----------------------------------------|
A|-----------------------------------------|
E|-9\1111-1111-1111-333-1111-1111-1111-333-|

Verse
"It's been so long.."
2.
G|----------------------|
D|---------2~-----------|
A|---4--4-------2----5~-|
E|-55----00---33---22---|

Pre-Chorus
"How long?"
3.
G|--------------------|
D|--------------------|
A|--------------------|
E|-1111-1111-1111-333-|

Verse
"And I wish I could.."
4.
G|-----------------------|
D|---------2~------------|
A|---4--4-------2--2--5~-|
E|-55----00---33----22---|

Pre-Chorus
"So much.."
5.
G|---------------------------------------|
D|---------------------------------------|
A|---------------------------------------|
E|-1111-1111-1111-333-1111-1111-1111-333-|

Chorus
"So please, Dont sit and watch the rain.." 
6.
G|------------------------------------------|
D|------------------------------------------|
A|------------------------------------------|
E|-5555-5555-0000-0000-1111-1111-1111-1-333-|

"So get back, get back" 
7.
G|-----------------------------------------|
D|-----------------------------------------|
A|-3333-3333-5555-5555---------------------|
E|---------------------1111-1111-1111-1111-|

"You see? You waited for a life from me.." 
8.
G|------------------------------------------|
D|------------------------------------------|
A|------------------------------------------|
E|-5555-5555-0000-0000-1111-1111-1111-1-333-|

"So get back, get back.." 
9.
G|---------------------|
D|---------------------|
A|-3333-3333-5555-5555-|
E|---------------------|

Outro
10.
G|---------------------------------------|
D|---------------------------------------|
A|---------------------------------------|
E|-1111-1111-1111-333-1111-1111-1111-333-|

Verse
"Just like father's side.."
11.
G|-----------------------|
D|---------2~------------|
A|---4--4-------2--2--5~-|
E|-55----00---33----22---|

Pre-Chorus
"How hard?"
12.
G|--------------------|
D|--------------------|
A|--------------------|
E|-1111-1111-1111-333-|

Verse
"And Im finding out.."
13.
G|-----------------------|
D|---------2~------------|
A|---4--4-------2--2--5~-|
E|-55----00---33----22---|

Pre-Chorus
"Life Songs.."
14.
G|---------------------------------------|
D|---------------------------------------|
A|---------------------------------------|
E|-1111-1111-1111-333-1111-1111-1111-333-|

Chorus
"So please, dont sit and watch the rain.." 
15.
G|------------------------------------------|
D|------------------------------------------|
A|------------------------------------------|
E|-5555-5555-0000-0000-1111-1111-1111-1-333-|

"So get back, get back.." 
16.
G|-----------------------------------------|
D|-----------------------------------------|
A|-3333-3333-5555-5555---------------------|
E|---------------------1111-1111-1111-1111-|

"You see? You waited for a life from me.." 
17.
G|------------------------------------------|
D|------------------------------------------|
A|------------------------------------------|
E|-5555-5555-0000-0000-1111-1111-1111-1-333-|

"So get back, get back.." 
18.
G|---------------------|
D|---------------------|
A|-3333-3333-5555-5555-|
E|---------------------|

Outro
19.
G|-----------------------|
D|-----------------------|
A|-----------------------|
E|-1111-1111-1111-333-5x-|

20.                      21.
G|--------------------| |------------------------|
D|--------------------| |------------------------|
A|-------------000-3x-| |-------------000-333----|
E|-1-0-1-0-1-3--------| |-1-0-1-0-1-3---------2x-|

22.
G|-------------------------------|
D|-------------------------------|
A|-------------000-333-----------|
E|-1-0-1-0-1-3---------2222-2222-|

23.
G|----------------------------------------------------------|
D|----------------------------------------------------------|
A|------------------------------------------0-0-0-0-0-0-0-0-|
E|-1-0-1-0-1-3x--1-0-1-0-1-3x--1-0-1-0-1-3x-----------------|

Chorus
"So please, dont sit and watch the rain.." 
24.
G|------------------------------------------|
D|------------------------------------------|
A|------------------------------------------|
E|-5555-5555-0000-0000-1111-1111-1111-1-333-|

"So get back, get back.." 
25.
G|-----------------------------------------|
D|-----------------------------------------|
A|-3333-3333-5555-5555---------------------|
E|---------------------1111-1111-1111-1111-|

"You see? You waited for a life from me.." 
26.
G|------------------------------------------|
D|------------------------------------------|
A|------------------------------------------|
E|-5555-5555-0000-0000-1111-1111-1111-1-333-|

"So get back, get back.."
27.
G|-----------------------------------------|
D|---------------------3333-3333-3333-3333-|
A|-3333-3333-5555-5555---------------------|
E|-----------------------------------------|

Outro
"So get up, get up.."
28.
G|-----------------------------------------------------------|
D|-----------------------------------------------------------|
A|-3333-3333-5555-5555---------------------------------------|
E|---------------------1111-1111-1111-333-1111-1111-1111-333-|

29.
G|--------------------------|
D|--------------------------|
A|-000-333------------------|
E|---------2x--1-0-1-0-1-3x-|

Lyrics:

It's been so long, and I still see you crying
How long? And I wish I could
Show all the things you've taught me
So much, I owe you too much

So please, don't sit and watch the rain fall down
So get back, get back,
And try to holding on what you're used to
You see? You waited for a life from me
So get back, get back,
And try to do it all that you wanted

Just like father's side, you work hard to help me
How hard? And I'm finding out
It's the best advice you gave me
Life songs, I owe you our songs

________________________________________________________

12. Interlude

Tuning: EADG

1.
G|---------------------------------|
D|-------3-------3-------3-------3-|
A|-5535-5--5535-5--5535-5--5535-5--|
E|---------------------------------|

2.
G|---------------------------------|
D|-------3-------3-------2-------2-|
A|-1101-1--1101-1--3323-3--3323-3--|
E|---------------------------------|

3.
G|---------------------------------|
D|-------3-------3-------3-------3-|
A|-5535-5--5535-5--5535-5--5535-5--|
E|---------------------------------|

4.
G|---------------------------------|
D|-------3-------3-------2-------2-|
A|-1101-1--1101-1--3323-3--3323-3--|
E|---------------------------------|

5.
G|---------------------------------|
D|-------3-------3-------3-------3-|
A|-5535-5--5535-5--5535-5--5535-5--|
E|---------------------------------|

6.
G|---------------------------------|
D|-------3-------3-------2-------2-|
A|-1101-1--1101-1--3323-3--3323-3--|
E|---------------------------------|

0:21
7.
G|----|
D|----|
A|-5~-|
E|----|

8.
G|---------------------------------|
D|-------3-------3-------3-------3-|
A|-5535-5--5535-5--5535-5--5535-5--|
E|---------------------------------|

9.
G|---------------------------------|
D|-------3-------3-------2-------2-|
A|-1101-1--1101-1--3323-3--3323-3--|
E|---------------------------------|

10.
G|---------------------------------|
D|-------3-------3-------3-------3-|
A|-5535-5--5535-5--5535-5--5535-5--|
E|---------------------------------|

11.
G|---------------------------------|
D|-------3-------3-------2-------2-|
A|-1101-1--1101-1--3323-3--3323-3--|
E|---------------------------------|

0:37
12.                       13.
G|---------------------| |----------------------|
D|---------------------| |----------------------|
A|------1111------3333-| |------1111-11-11-1----| 1s not 11s
E|-3333------1111------| |-3333--------------1x-|

14.                       15.
G|---------------------| |----------------------|
D|---------------------| |----------------------|
A|------1111------3333-| |------1111-11-11-1----| 1s not 11s
E|-3333------1111------| |-3333--------------1x-|

0:49
16.
G|---------------------------------|
D|-------3-------3-------3-------3-|
A|-5535-5--5535-5--5535-5--5535-5--|
E|---------------------------------|

17.
G|----|
D|----|
A|-5~-|
E|----|

______________________________________________________

13. Walk Don't Run

Tuning: Drop D (DADG)

Verse
"I see the sandfall..."
1.
G|-----------------------------------------------|
D|-----------------------------------------------|
A|-------------------------------------------9\1-|--x3
D|-444-5~\1----444-5~\1----777-9~\1----777-9-----|

Pre-Chorus
"Its time to let it go..."
2.
G|---------------------------------------|
D|---------------------------------------|
A|---------------------5~----4~----2~----|
D|-6666-6666-5555-5555-------------------|

Chorus
"Wouldnt it be nice..."
3.
G|--------------------------------------------------------4---|
D|------------------------------------------------------4---4-|
A|------------------------------------9\1-------0-0-0-2-------|
D|-444-5-55555555555555-6-666666-5-55-----0-0-0---------------|

4.
G|----------------------------------------|
D|----------------------------------------|
A|----------------------------------------|
D|-444-5-55555555555555-6-666666-5-555555-|

Outro
5.
G|--------------------------------------------------------------------------|
D|--------------------------------------------------------------------------|
A|-2~--------------0-1-2~--------------0-1-2~--------------0-1-2~-----------|
D|----0~-4~-0~-4-5--------0~-4~-0~-4-5--------0~-4~-0~-4-5--------0~-4~-0~--|

Verse
6.
G|-----------------------------------------------|
D|-----------------------------------------------|
A|-------------------------------------------9\1-|--x2
D|-444-5~\1----444-5~\1----777-9~\1----777-9-----|

"Try to appreciate..."
7.
G|-----------------------------------------------------------------------------|
D|-----------------------------------------------------------------------------|
A|-------------------------------------------------------------------------9\1-|
D|-444-5-55555555555-444-5-55555555555-777-9-99999999999-777-9-99999999999-----|

Pre-Chorus
"Its time to let it go..."
8.
G|---------------------------------------|
D|---------------------------------------|
A|---------------------5~----4~----2~----|
D|-6666-6666-5555-5555-------------------|

Chorus
"Wouldnt it be nice..."
9.
G|--------------------------------------------------------4---|
D|------------------------------------------------------4---4-|
A|------------------------------------9\1-------0-0-0-2-------|
D|-444-5-55555555555555-6-666666-5-55-----0-0-0---------------|

10.
G|----------------------------------------|
D|----------------------------------------|
A|----------------------------------------|
D|-444-5-55555555555555-6-666666-5-555555-|

Outro
11.
G|----------------------------------------------------------------------------|
D|----------------------------------------------------------------------------|
A|-2~---------------------------------------------------------------------9\1-|
D|----0~-4~-0~-444-5-555-555-5-444-5-555-555-5-777-9-999-999-9-777-9-999-9----|

12.
G|---------------------------------------------------------------|
D|---------------------------------------------------------------|
A|------------------------------------------------------------9--|
D|-444-5-555-555-5-444-5-555-555-5-777-9-999-999-9-777-9-999-9-9-|

Bridge
13.
G|-----------------------------------------------------|
D|--------------------------------0~-----------0~------|
A|------------------------------2------------2---------|--x2
D|-2x-2-2~--4~--2x-2-2~--4~--0x-------4~--0x-------4~--|

Pre-Chorus
"Its time to let it go..."
14.
G|------------------------------------------------------------------------|
D|------------------------------------------------------------------------|
A|--------------------------------9\1----------44444444-22222222-22222222-|
D|-5555555555555555-66666666-5555-----00000000----------------------------|

Chorus
"Wouldnt it be nice..."
15.
G|----------------------------------------------------------------------------|
D|----------------------------------------------------------------------------|
A|------------------------------------9\1----------44444444-2222222-022222222-|
D|-444-5-55555555555555-6-666666-5-55-----00000000----------------------------|

16.
G|----------------------------------------|
D|----------------------------------------|
A|----------------------------------------|
D|-444-5-55555555555555-6-666666-5-555555-|

Outro
17.
G|--------------------------------------------------------------------------|
D|--------------------------------------------------------------------------|
A|-2~--------------0-1-2~--------------0-1-2~--------------0-1-2~-----------|
D|----0~-4~-0~-4-5--------0~-4~-0~-4-5--------0~-4~-0~-4-5--------0~-4~-0~--|

18.
G|---------------------------------------------------------|
D|---------------------------------------------------------|
A|-2~------------------------------------------------------|
D|---------------------------------------------------------|

Lyrics:

I see the sand fall through my hand
A subtle picture, quiet reminder
We're staring through this hour glass
When will it run out? When will we run out?
We've learned to build our castles out of sand for so long
So temporary, I watch them tumble down

It's time to let it go
Turn back the hand to the beginning
Wouldn't it be nice, give it some more time
Bury yourself under the blanket
How do we slow down?
How do we walk when we're supposed to run?

Surround ourselves with plastic bonds
It give us comfort, comfort in numbers
These monuments will always stand
Our lonely temples, lean too we'll all fall
Try to appreciate what little time we have
Let's slow it down, life's so uncertain
We lay our brother's down

Don't let life pass you by tonight
Brace inside, brace yourself this time

_______________________________________________________

14. A View To Save

Tuning: EADG

Intro
1.
G|-4-7-6-------4-7-6-------|
D|-------7-4-7-------7-4-7-|
A|-------------------------|
E|-------------------------|

Verse
"See her move"
2.
G|---------------------------------|
D|--40--2---40--2------------------|
A|-2---2-4-2---2-4--50--75--50--75-|--x2
E|-----------------3---3---3---3---|

"So watch.."
3.
G|-----------------------------|
D|-----------------------------|
A|-222222-222222---------------|--x2
E|---------------333333-333333-|

Pre-Chorus
4.
G|-4-7-6-------4-7-6-------|
D|-------7-4-7-------7-4-7-|
A|-------------------------|
E|-------------------------|

Chorus
"Kill the lights"
5.
G|--------------------------------------------------------|
D|--------------------------------------------------------|
A|-555555-555777--------777555-222222-222222-444000-------|
E|---------------555555----------------------------333555-|

"Over and over you pull me.."
6.
G|-------------------------4-7-6-------4-7-6-------|
D|-------------------------------7-4-7-------7-4-7-|
A|---------222-555---------------------------------|
E|-333-555---------333-555-------------------------|

Verse
"Like a drug"
7.
G|---------------------------------|
D|--40--2---40--2------------------|
A|-2---2-4-2---2-4--50--75--50--75-|--x2
E|-----------------3---3---3---3---|

"Im slipping away tonight"
8.
G|---------------------------------------------------------|
D|---------------------------------------------------------|
A|-2222--222-000---------------2222--222-000---------------|
E|---------------3333--333-555---------------3333--333-555-|

Pre-Chorus
9.
G|-4-7-6-------4-7-6-------|
D|-------7-4-7-------7-4-7-|
A|-------------------------|
E|-------------------------|

Chorus
"Kill the ligths"
10.
G|--------------------------------------------------------|
D|--------------------------------------------------------|
A|-555555-555777--------777555-222222-222222-444000-------|
E|---------------555555----------------------------333555-|

"Over and over you pull me.."
11.
G|-------------------------|
D|-------------------------|
A|---------222-555---------|
E|-333-555---------333-555-|

12.
G|---------------------------------------------------------|
D|---------------------------------------------------------|
A|-2~--2-5-4-0---2~--2-5-4-0-------2-5-4-0-------2-5-4-0---|--x2
E|-------------2-------------2-3~----------2-3~----------2-|

"Youre the face of my addiction.."
13.                                                   14.
G|---------------------------------------------|     |-----|
D|---------------------------------------------|     |-----|
A|---------------------------------------------|--x2 |-----|
E|-0000000000-2222222222-3333333333-5555555555-|     |-7\1-|

Chorus
"Kill the ligths"
14.
G|--------------------------------------------------------|
D|--------------------------------------------------------|
A|-555555-555777--------777555-222222-222222-444000-------|
E|---------------555555----------------------------333555-|

"Over and over you pull me.."
15.
G|-------------------------|
D|-------------------------|
A|---------222-555---------|
E|-333-555---------333-555-|

"Kill the ligths.."
16.
G|--------------------------------------------------------|
D|--------------------------------------------------------|
A|-555555-555777--------777555-222222-222222-444000-------|
E|---------------555555----------------------------333555-|

"Over and over you pull me.."
17.
G|---------------------------------------------------------|
D|---------------------------------------------------------|
A|---------222-555---------222-555---------222-555---------|
E|-333-555---------333-555---------333-555---------333-555-|

"Ahh.."
19.
G|---------------------------------------------------------|
D|---------------------------------------------------------|
A|-2222--222-000---------------2222--222-000---------------|--x2
E|---------------3333--333-555---------------3333--333-555-|

20.
G|----|
D|----|
A|----|
E|-3~-|

Lyrics:

See her move
With the slight of a dress I am fixed on you
Let me in, I need more than a taste
'Cause a glimpse won't do
So watch, feel my eyes caress every movement
If you only knew what you put me through

Kill the lights
Hiding nothing we'll intertwine
Pressing on till the sun arrives
Shedding light on a view to save
Over and over you pull me in with conviction
You pull me in, I'm caught

Like a drug, so addictive
At first that you can't ignore
Feel you pace, through my veins without a trace
How I crave for more
I'm slipping away tonight
I've become so mesmerized
I'm burning up inside

You're the face of my addiction
I can't hide these good intentions inside

You're the spark igniting my desire
And I'm burning up with a touch

_____________________________________________________

15. Interlude/On Our Own

No bass for this song

Lyrics:

We built these walls to last forever
And now I'm planning my escape
So we build then we burn
Is there any other way
So these problems fade away
Cause we worked done our best
And we've come so far along
This road together on our own

______________________________________________________

16. My Escape

Tuning: Drop D (DADG)

Intro
1.
G|--------------------------------------------------------------|
D|--------------------------------------------------------------|
A|-55555555-5555555---------------------------------------------|
D|------------------0~-2-0x----0~-2-0x----0~-2-0x----0~-2-0x----|

Verse
"I cannot fake this any longer..."
2.
G|----------------------------------------------|
D|----------------------------------------------|
A|-11111111-3333333-5-7-5-0-------5-7-5-0-------|--x3
D|--------------------------5-5-4---------5-5-4-|

"You love these notes..."
3.
G|--------------------------------|
D|--------------------------------|
A|-11111111-3333333---55----55--5-|
D|------------------0----00---00--|

Chorus
"So Im cutting out..."
4.
G|--------------------------------------------------------|
D|--------------------------------------------------------|
A|-2-2--2----------------------2-2--2----------55---55--5-|--x2
D|--------0-0--0-5-5--5-2-2--2--------0-0--0-5----00--00--|

Outro
5.
G|-----------------------|
D|-----------------------|
A|-----------------------|
D|-0~-2-0x----0~-2-0x----|

Verse
"Somehow the music..."
6.
G|----------------------------------------------|
D|----------------------------------------------|
A|-11111111-3333333-----------------------------|
D|----------------------------------------------|

"I love these strings..."
7.
G|----------------------------------------------|
D|----------------------------------------------|
A|-11111111-3333333-5-7-5-0-------5-7-5-0-------|--x2
D|--------------------------5-5-4---------5-5-4-|

8.
G|--------------------------------|
D|--------------------------------|
A|-11111111-3333333---55----55--5-|
D|------------------0----00---00--|

Chorus
"So Im cutting out..."
9.
G|--------------------------------------------------------|
D|--------------------------------------------------------|
A|-2-2--2----------------------2-2--2----------55---55--5-|--x2
D|--------0-0--0-5-5--5-2-2--2--------0-0--0-5----00--00--|

10.
G|--------------|
D|--------------|
A|---55---55--5-|
D|-0----00--00--|

Bridge
11.
G|----------------------------------------------|
D|----------------------------------------------|
A|-11111111-3333333-5-7-5-0-------5-7-5-0-------|--x3
D|--------------------------5-5-4---------5-5-4-|

12.
G|--------------------------------|
D|--------------------------------|
A|-11111111-3333333-5~------------|
D|--------------------------------|

"And now Im planning My Escape..."
13.
G|------------------|
D|------------------|
A|-55555555-5555555-|
D|------------------|

Chorus
"So Im cutting out..." *Slower this time
14.
G|---------------------------------------------------|
D|---------------------------------------------------|
A|-222-2-------------------------------------000-111-|--x3
D|-------000-0-555-5-222-2-555-5-222-2-555-5---------|

Outro
15.
G|--------------------------------------------|
D|--------------------------------------------|
A|----------------------------------5~--------|
D|-0~-2-0x----0~-2-0x----0~-2-0x--------------|

Lyrics:

I cannot fake this any longer
another night, another show
I'm going forward with going nowhere
you love these notes, I hate this road

So I'm cutting out, cutting out
leaving all that stands behind me
and I watch you fall, watch you fall to the ground
So wait and see, I will be
everything you never let me
and watch you fall, watch you fall to the ground

Somehow the music lasts for me now
I love these strings, I hate these chords
can I escape these things before me
I love these crowds, but I need more

We built these walls to last forever
and now I'm planning my escape

So I'm cutting out, cutting out
leaving all that stands behind me
and I watch you fall, watch you fall to the ground
So wait and see, I will be
everything you never let me
and I watch you fall, watch you fall to the ground

Cause it's flying by, change your mind
no more sound until my exit
opportunity doesn't wait till you fall

______________________________________________________

End
I hope you enjoyed
Please rate :D

+++++++++++++++++++++++++++++++++
| RaiLeff                       |
| Underground__Dora@Hotmail.Com |
+++++++++++++++++++++++++++++++++

            
            
Suggest correction
Creating personal tab
Creating personal tab
You can edit any tab online and save it as your Personal.

You can edit, replace or remove any tab part or add personal notes – all changes will be seen only by you.

Personal tabs can be accessed anytime from any device, even offline.
Learn more »
Give kudos to tab author, rate the tab!
1 2 3 4 5
comments
print report bad tab
3 comments total.
0 reply
rufiopunkrock 596 Jun 28, 2007 10:34 AM

hey raileff
como se de tus capacidades para sacar canciones a oido te puse un dos porque vi que fallaste en muchas cosas
pues es mi opinion personal y pues tu veras si pones atencion o no
mira:
de out of control el intro no esta bien realmente tiene otras notas, igual el coro las notas se te corrieron un poco, el compas 20 se te volvieron a correr las notas porque no suena a la real, el intro de let fate decide no me convence, tiene algo mal, te felicito por A Simple Line porque esta perfecta, el interlude 4 esta solo en drop d no todas las cuerdas un tono mas abajo, por lo que cambia mucho a la cancion verdadera, en never learn lo unico malo que encontre fue el bridge el cual no es asi, bitter season te suena bastante bien, aunque te hacen falta dos pequeños solos pero muy bien, en mental games el intro no me suena, sigue convencido en que es como yo lo hago, igual el primer verso es como el intro en cambio el segundo es diferente, en el interlude 8 te hacen falta trabajar las quintas para dos partes de la cancion, drowning te suena bastante bien a excepcion del coro el cual no es asi, dado que no comienza en esa nota ni tiene esos cambios, pero bien, en question and answers el unico error que encontre fue el primer outro el cual estoy seguro que no es asi, tiene otra estructura, life songs esta muy bien a excepcion del coro que te falta un solo y los versos donde te faltan unas notas, en el interlude 12 los compases 12,13,14,15 estan mal porque asi no va la melodia en esa parte lo demas esta bien en ese interlude, en walk don't run el precoro esta mal en las notas que van solas, son diferentes, al igual que el outro el cual tiene unas notas que no pusiste ahi, y el bridge tiene otras notas que no pusiste, te felicito por a view to save porque suena perfecta, en my escape fallaron varias cosas, en el bridge hay tres solos de bajo y tu pusiste la misma estructura de los anteriores versos y en el coro final no hace lo mismo, tiene unos cambios, y al igual con la cancion no hace tres veces eso sino 2 dado que en la tercera cambio el ritmo y melodia
bueno pues espero que pongas atencion a mis criticas
y te puse dos porque se que tienes gran potencial para esto
sigue practicando
chao

0 reply
RaiLeff 12,922 Jun 28, 2007 01:27 PM

Bah, grax por tomarte el tiempo de revisar tutte :D

0 reply
carrotcake 2,027 Jul 28, 2007 09:45 AM

that my friend is the longest comment EVER...what language is that lol?

guest
You may want to rate the tab now too:
select rating
Wanna post a correction for this tab? Suggest correction