Oops, an error
Loading. Please wait.

Countdown bass

version 1
version 1

Whole song

Interactive

by Rufio
436 views 1 this week
no commentswrite comment
1 2 3 4 5
2 more votes to show rating
add to favorites
×
Save as Personal and add changes to this tab that will be seen only by you. Learn more ›
×
You can save this tab as Personal to edit and correct it or add notes. All changes will be seen only by you. Learn more »
launch autoscroll
font size
0
reset
guitar tuner
edit
Autoscroll
slow
fast
+/-
esc
set tempo
stop
Author
++++++++++++++++++++
| Rufio- Countdown |
++++++++++++++++++++

EADG

Intro
1.
G|-------------------------------------------------|
D|-------------------------------------------------|
A|-------------------------------------------------|
E|-10\3-3-3-3-33-5-5-5-5-55-2-2-2-2-22-3-3-3-3-xxx-|

2.
G|------------------------------------------------------------------------|
D|------------------------------------------------------------------------|
A|---------------------------------------------------------2~----4~----00-|
E|-3-3-3-3-33-5-5-5-5-55-2-2-2-2-22-3-3-3-3-33-3~----5~-------------------|

Verse
"Make up your mind..."
3.
G|----------------------------------------------------------------------|
D|----------------------------------------------------------------------|
A|-22222222-22222222-------------------5xxx5xxx5xxx55-00000000-00000000-|--x2
E|-------------------33333333-33333333----------------------------------|

Pre-Chorus
"The gate swung..."
4.
G|------------------------------------------------------------------------|
D|------------------------------------------------------------------------|
A|-------------------------------------22222222-22222222-44444444-4444-5x-|
E|-33333333-33333333-55555555-55555555------------------------------------|

"This countdown..."
5.
G|-------------------------------------------------------------------------|
D|-------------------------------------------------------------------------|
A|-------------------------------------22222222-22222222-44444444-44444444-|
E|-33333333-33333333-55555555-55555555-------------------------------------|

Chorus
"My timing's off..."
6.
G|-------------------------------------------------------------------|
D|-------------------------------------------------------------------|
A|-55555555-44440000-22222222-0000-----------------------------------|--x2
E|--------------------------------2222-3xxx3xxx3xxx33-5xxx5xxx5xxx55-|

Outro
7.
G|---------------------------------------------------------|
D|---------------------------------------------------------|
A|---------------------------------------------------------|
E|-3-3-3-3-33-5-5-5-5-55-2-2-2-2-22-3-3-3-3-33-3~----5~----|

Verse
"You try saying everything's over..."
8.
G|------------------------------------------------------------------------|
D|------------------------------------------------------------------------|
A|-22222222-22222222-------------------55555555-55555555-00000000-0000-0x-|
E|-------------------33333333-33333333------------------------------------|

"Any single problem..."
9.
G|----------------------------------------------------------------------|
D|----------------------------------------------------------------------|
A|-22222222-22222222-------------------5xxx5xxx5xxx55-00000000-00000000-|
E|-------------------33333333-33333333----------------------------------|

Pre-Chorus
"The gate swung..."
10.
G|-------------------------------------------------------------------------|
D|-------------------------------------------------------------------------|
A|-------------------------------------22222222-22222222-44444444-4-4-4-5x-|
E|-33333333-33333333-55555555-55555555-------------------------------------|

Chorus
"My timing's off..."
11.
G|-------------------------------------------------------------------|
D|-------------------------------------------------------------------|
A|-55555555-44440000-22222222-0000-----------------------------------|--x2
E|--------------------------------2222-3xxx3xxx3xxx33-5xxx5xxx5xxx55-|

Bridge
12.
G|----------------------------------------------------------|
D|----------------------------------------------------------|
A|-------------222x--5555-44----------------222x--5555-44---|
E|-333x--555x---------------55--333x--555x---------------55-|

"Cant take back..."
13.
G|----------------------------4444-2222----------------------------4444-2222-|
D|-55555555/77777777\44444444-----------55555555/77777777\44444444-----------|
A|---------------------------------------------------------------------------|
E|---------------------------------------------------------------------------|

"Dont be denying it..."
14.
G|-----------------------------------------------------------------4444-2222-|
D|-55555555-----------------------------55555555-----------------------------|
A|----------------------------2222-0000--------------------------------------|
E|----------55555555-22222222--------------------55555555-22222222-----------|

"On..."
15.
G|-----------------------|
D|-----------------------|
A|-2222-------2222-0~----|
E|------3~---------------|

Chorus
"My timing's off..."
16.
G|-------------------------------------------------------------------|
D|-------------------------------------------------------------------|
A|-55555555-44440000-22222222-0000-----------------------------------|--x2
E|--------------------------------2222-3xxx3xxx3xxx33-5xxx5xxx5xxx55-|

Outro
17.
G|-----------------------|
D|-----------------------|
A|-2222------------------|
E|------3~---------------|

Lyrics:

Make up your mind,
We're hurting inside,
Every single breath I take is spitting out your name.
We'll see in time,
This choice is not mine,
You can't see my answer cos' my heart is simply dead.

The gate swung,
No hurting her.
Your mind's closed,
Just let me in.
This countdown is breaking me,
Just don't leave.

My timing's off,
It moves like your own,
When you said it's all done.
Your clinginess tore up my mind.
While I'm gone you'll still be with me.
Be with me...

You try saying everything's over,
and try saying everything's gone.
Any single problem in your wondering mind,
The problem is my ordinary life.

Can't take back what you said long ago.
No time for apologies, I know.
Don't be denying it.
Then we've had it all.
I'm waiting, trying,
I keep holding on...

+++++++++++++++++++++++++++++++++
| RaiLeff                       |
| Underground__Dora@Hotmail.Com |
+++++++++++++++++++++++++++++++++
Suggest correction
Creating personal tab
Creating personal tab
You can edit any tab online and save it as your Personal.

You can edit, replace or remove any tab part or add personal notes – all changes will be seen only by you.

Personal tabs can be accessed anytime from any device, even offline.
Learn more »
Give kudos to tab author, rate the tab!
1 2 3 4 5
comments
print report bad tab
guest
You may want to rate the tab now too:
select rating
Wanna post a correction for this tab? Suggest correction