Oops, an error
Loading. Please wait.

Decency bass

version 2
version 2

Whole song

Interactive

by Rufio
110 views 1 this week
no commentswrite comment
1 2 3 4 5
2 more votes to show rating
add to favorites
×
Save as Personal and add changes to this tab that will be seen only by you. Learn more ›
×
You can save this tab as Personal to edit and correct it or add notes. All changes will be seen only by you. Learn more »
launch autoscroll
font size
0
reset
guitar tuner
edit
Autoscroll
slow
fast
+/-
esc
set tempo
stop
Author
++++++++++++++++++
| Rufio- Decency |
++++++++++++++++++

EADG

Intro
1.
G|--------------|
D|-4~-2~-0~-----|
A|----------4~--|
E|--------------|

Verse
"Feeling locked up..."
2.
G|----------------------------------------------------------------|
D|----------------------------------------------------------------|
A|-------------------55555555-55555555-00000000-00000000----------|
E|-22222222-00000000-------------------------------------44444444-|

3.
G|--------------|
D|-7~-6~-4~-----|
A|----------7~--|
E|--------------|

"Sheltered memories..."
4.
G|----------------------------------------------------------------|
D|----------------------------------------------------------------|
A|-------------------55555555-55555555-00000000-00000000----------|
E|-22222222-00000000-------------------------------------44444444-|

Pre-Chorus
"Sometimes I feel..."
5.
G|----------------------------------------------------------------|
D|----------------------4444-4444-------------------------------2-|
A|-5-5-4----------5-5-4-----------5-5-4---------------------------|
E|-------22-222-2-----------------------22-222-244-444-4444-4-2---|

"So ask me where will I be..."
6.
G|-----------------------------------------------------------|
D|----------------------4444-4444----------------------------|
A|-5-5-4----------5-5-4-----------5-5-4----------------------|
E|-------22-222-2-----------------------22-222-24444-4444-4X-|

Chorus
"My decency is bleeding red..."
7.
G|-------------------------------------|
D|-------------------------------------|
A|-00000000-77777775-99999999\55555555-|--x2
E|-------------------------------------|

"Thoughts we defined...""
8.
G|-------------------------------------------------------------------------|
D|-------------------------------------------------------------------------|
A|-00000000----------------------------55555555-55555555-77777777-77777777-|
E|----------44444444-22222222-00000000-------------------------------------|

Outro
9.
G|-------------------------|
D|-------------------------|
A|-4~-0~-5~----4~-0~-------|
E|-------------------0~----|

Verse
"Feeling locked up..."
10.
G|------------------------------------------------------------------|
D|------------------------------------------------------------------|
A|-------------------55555555-55555555-00000000-00000000--7-77-7-77-|
E|-22222222-00000000-------------------------------------4-4--4-4---|

"Sheltered memories..."
11.
G|----------------------------------------------------------------|
D|----------------------------------------------------------------|
A|-------------------55555555-55555555-00000000-00000000----------|
E|-22222222-00000000-------------------------------------44444444-|

Pre-Chorus
"Sometimes I feel..."
12.
G|----------------------------------------------------------------|
D|----------------------4444-4444-------------------------------2-|
A|-5-5-4----------5-5-4-----------5-5-4---------------------------|
E|-------22-222-2-----------------------22-222-244-444-4444-4-2---|

"So ask me where will I be..."
13.
G|-----------------------------------------------------------|
D|----------------------4444-4444----------------------------|
A|-5-5-4----------5-5-4-----------5-5-4----------------------|
E|-------22-222-2-----------------------22-222-24444-4444-4X-|

Chorus
"My decency is bleeding red..."
14.
G|-------------------------------------|
D|-------------------------------------|
A|-00000000-77777775-99999999\55555555-|--x2
E|-------------------------------------|

"Thoughts we defined..."
15.
G|-------------------------------------------------------------------------|
D|-------------------------------------------------------------------------|
A|-00000000----------------------------55555555-55555555-77777777-77777777-|
E|----------44444444-22222222-00000000-------------------------------------|

Outro
16.
G|--------------------------------------------------|
D|----------------9~-7~------9~-7~--7-6-7-9-7-9/11~-|
A|-----------5~-------------------------------------|
E|-2~-------------------2~--------------------------|

Bridge
17.
G|---------------------------------------------------------|
D|---------------------------------------------------------|
A|-----------------------------55-xxx-55-xxx-00------------|--x2
E|-22-xxx-22-xxx-22-xxx-22-xxx------------------xxx-00-xxx-|

"Decency is bleeding red..."
18.
G|------------------------------------------------------------------|
D|------------------------------------------------------------------|
A|---------------55555555-77777777----------------55555555-77777777-|
E|-5-4-5x--------------------------2-0-2-22222222-------------------|

"Thoughts we defined..."
19.
G|-------------------------------------------------------------------------|
D|-------------------------------------------------------------------------|
A|-00000000----------------------------55555555-55555555-77777777-77777777-|
E|----------44444444-22222222-00000000-------------------------------------|

"And I say theres end..."
20.
G|-------------------------------------|
D|-------------------------------------|
A|-55555555-55555555-77777777-77777777-|
E|-------------------------------------|

Outro
21.
G|-------------------------|
D|-------------------------|
A|-4~-0~-5~----4~-0~-------|
E|-------------------0~----|

Lyrics:


Feeling locked up and,
I'm seeping in this,
Falling over myself.
Sheltered memories.
I'm trapped inside my mind.
My mode has decayed.
Sometimes I feel like I'm holding onto something,
Will I feel free again?
So ask me where will I be,
It seems I'll never know.
You'll never find me again.

My decency is bleeding red,
I can't see.
Everything's gray in my head.
It's over.
Thoughts we defined.
The problems remain the same,
There's no end.

+++++++++++++++++++++++++++++++++
| RaiLeff                       |
| Underground__Dora@Hotmail.Com |
+++++++++++++++++++++++++++++++++
Suggest correction
Creating personal tab
Creating personal tab
You can edit any tab online and save it as your Personal.

You can edit, replace or remove any tab part or add personal notes – all changes will be seen only by you.

Personal tabs can be accessed anytime from any device, even offline.
Learn more »
Give kudos to tab author, rate the tab!
1 2 3 4 5
comments
print report bad tab
guest
You may want to rate the tab now too:
select rating
Wanna post a correction for this tab? Suggest correction