Oops, an error
Loading. Please wait.

Dipshit intro tab

version 2
version 2

Intro

Whole song

Interactive

by Rufio
1,639 views 1 this week
1 commentread comment
1 2 3 4 5
x 3
add to favorites
×
Save as Personal and add changes to this tab that will be seen only by you. Learn more ›
×
You can save this tab as Personal to edit and correct it or add notes. All changes will be seen only by you. Learn more »
launch autoscroll
font size
0
reset
how to read this tab
guitar tuner
edit
Autoscroll
slow
fast
+/-
esc
set tempo
stop
Difficulty
intermediate
rufio
dipshit



ive seen the other tabs and the intros are wrong. i think this is pretty close

|----------------------------------------------------------|
|--3-3-----------------------------------------------------|
|--2-2---------2-2-2-----4-2-0---4-4---------2-------------|
|--0-0-0h2h4-0---2-2-0h2-------4-4-4-0h2h4-0---4-4-5-5-----|
|----------------0-0-------------2-2-----------4-4-5-5-----|4 times
|----------------------------------------------2-2-3-3-----|

thats all i got. you gotta play it pretty fast.

            
            
Suggest correction
Creating personal tab
Creating personal tab
You can edit any tab online and save it as your Personal.

You can edit, replace or remove any tab part or add personal notes – all changes will be seen only by you.

Personal tabs can be accessed anytime from any device, even offline.
Learn more »
Give kudos to tab author, rate the tab!
1 2 3 4 5
comments
print report bad tab
1 comment total.
0 reply
iremain60 51 Jun 11, 2007 04:35 PM

i made a mistake. intro should end like:
|----------------|
|----------------|
|----------------|
|-4/5--5--5-5----|
|-4/5--5--5-5----|
|-2/3--3--3-3----|

guest
Wanna post a correction for this tab? Suggest correction