Oops, an error
Loading. Please wait.

Drunk In Love Bass Tab

846 views 1 this week
no commentswrite comment
1 2 3 4 5
3 more votes to show rating
add to favorites
launch autoscroll
font size
0
reset
guitar tuner
Autoscroll
slow
fast
+/-
esc
set tempo
stop
Help us to improve Ultimate-Guitar.com Take our survey!
×
Author
Tuning
D# G# C# F# A# D#
++++++++++++++++++++++++
| Rufio- Drunk In Love |
++++++++++++++++++++++++


"Thoughts turn into pictures..."


Tuning: Half-Step Down (EbADG)


Intro
1.
G||----------------------------------------------------------------------|
D||----------------------------------------------------------------------|
A||------------------------------------------------------------111-------|
Eb|-00000000-55555555-5424-0-55555555-00000000-55555555-5424-0-----0~----|

Verse
"Bring home the chemicals..."
2.
G||-------------------------------------------------|
D||-------------------------------------------------|
A||-66666666-66666666-11111111-11111111-1~-3~-------|
Eb|-------------------------------------------5~----|

"We're looking at ourselves..."
3.
G||-------------------------------------------------|
D||-------------------------------------------------|
A||-66666666-66666666-11111111-11111111-1~----------|
Eb|----------------------------------------0~-5~----|

Pre-Chorus
"Write love songs to no one..."
4.
G||-------------------------------------------------------------------------------|
D||-------------------------------------------------------------------------------|
A||-11x-1x----33x-3x--1h3p1-------------------11x-1x----33x-3x-1h3p1--------------|
Eb|-------------------------55x-5x----0000000------------------------2~-4~-5~x----|

Chorus
"Sweet honesty you're breakin all of me..."
5.
G||-------------------------------------------------------------------|
D||-------------------------------------------------------------------|
A||-666-1-1h33333333-----6-611111----666-1-1h33333333-----6-611111111-|
Eb|------------------555----------00------------------555-------------|

Outro
6.
G||------------------------------------|
D||------------------------------------|
A||--------------------------111-------|
Eb|-00000000-55555555-5424-0-----0~----|

Verse
"When does the silence go..."
7.
G||-------------------------------------------------|
D||-------------------------------------------------|
A||-66666666-66666666-11111111-11111111-1~-3~-------|
Eb|-------------------------------------------5~----|

"No love, there is no hope..."
8.
G||-------------------------------------------------|
D||-------------------------------------------------|
A||-66666666-66666666-11111111-11111111-1~----------|
Eb|----------------------------------------0~-5~----|

Pre-Chorus
"Thoughts turn into pictures..."
9.
G||-----------------------------------------------------------------------------------|
D||-----------------------------------------------------------------------------------|
A||-11x-1x----33x-3x--1h3p1-------------------11x-1x----33x-3x-1h3p1------------------|
Eb|-------------------------55x-5x----0000000------------------------2~-4~-5~--5555x--|

Chorus
"Sweet honesty you're breakin all of me..."
10.
G||-------------------------------------------------------------------|
D||-------------------------------------------------------------------|
A||-666-1-1h33333333-----6-611111----666-1-1h33333333-----6-611111111-|
Eb|------------------555----------00------------------555-------------|

Bridge
"Late nights of getting lost..."
11.
G||----------------------------------------------------------------------------------|
D||-------------------------------------5-3-1----------------------------------------|
A||-------1~--------------1~--------1~--------3-----------1~-------------------------|
Eb|-0~----------5~----0~------0~----------------5~----0~------00x--0x--0x--0x--------|

Chorus
"Sweet honesty you're breakin all of me..."
12.
G||-------------------------------------------------------------------|
D||-------------------------------------------------------------------|
A||---6-1-1h33333333-----6-611111----666-1-1h33333333-----6-6111111---|
Eb|------------------555----------00------------------555----------00-|

"Sweet honesty you're breakin all of me..."
13.
G||-------------------------------------------------------------------|
D||-------------------------------------------------------------------|
A||-666-1-1h33333333-----6-611111----666-1-1h33333333-----6-611111111-|
Eb|------------------555----------00------------------555-------------|

Outro
14.
G||------------------------------------|
D||------------------------------------|
A||--------------------------111-------|
Eb|-00000000-55555555-5424-0-----0~----|

Please rate thanks!!


Lyrics:

Bring home the chemicals
Not sure just how it goes
So we'll take it slow
We're looking at ourselves
Caught up in the undertow
But it's all we know

Write love songs to no one
Caught fire in the ocean
What is our position?
Drunk in love

Sweet honesty
You're breaking all of me
Sweet misery
You're my favorite company

When does the silence go?
These hours are passing slow
So we'll take our time
No love, there is no hope
We'll play it off so no one knows
That we've blown our minds

Thoughts turn into pictures
And I can't wait to see them
Send postcards to all the ones we love

Late nights of getting lost
Fist fights in the front lawn
Feels like it never stops
It will get better to me, eventually
Moonlights, drunk in love
Morning, wake me up
Feels like it never stops
It will get better to me, eventually

+++++++++++++++++++++++++++++++++
| Raileff                       |
| Underground__Dora@Hotmail.Com |
+++++++++++++++++++++++++++++++++
Suggest correction
Give kudos to tab author, rate the tab!
1 2 3 4 5
comments
print report bad tab
guest
You may want to rate the tab now too:
select rating
Wanna post a correction for this tab? Suggest correction