Oops, an error
Loading. Please wait.

Face The Truth Tab

version 2
version 2

Whole song

Interactive

48 views 1 this week
no commentswrite comment
1 2 3 4 5
please rate
add to favorites
launch autoscroll
font size
0
reset
how to read this tab
guitar tuner
Autoscroll
slow
fast
+/-
esc
set tempo
stop
Help us to improve Ultimate-Guitar.com Take our survey!
×
Author
Face the Truth - Rufio
tabber - shonofear


Intro
 Gtr 1
-|-----------------------------------------x2-|
-|-----------------------------------------0--|
-|----0---0---0------0------0---0---0-----0-0-|
-|---2---0---0------0-0----2---0---0----------|
-|------2---3---3/5-----------2---3---3/5-----|
-|-0---------------------0--------------------|

Pre Verse
 Gtr 1
-|-------------3--------------|
-|-------------3--------------|
-|----0----0---0--------------|
-|---0----0----2-r------------|
-|-------------3--------------|
-|-2----3------------------x4-|

 Gtr 2
-|---------------3----2---2h3-|
-|----------------3----3------|
-|-----------------0----0-----|
-|----------------------------|
-|-------------3--------------|
-|-------------------------x4-|

Verse
 Gtr 1
-|----10-----|----7-----|----10-----|-------------|
-|--8----8-8-|--8---8-8-|--8----8-8-|--7-7h8p7--7-|
-|-7------7--|-7-----7--|-7------7--|-7--------7--|
-|-----------|----------|-----------|-------------|
-|-----------|----------|-----------|-------------|
-|--------x3-|----------|--------x3-|-------------|

-|----10-----|----7-----|----10-----|---|
-|--8----8-8-|--8---8-8-|--8----8-8-|-7-|
-|-7------7--|-7-----7--|-7------7--|---|
-|-----------|----------|-----------|---|
-|-----------|----------|-----------|---|
-|--------x3-|----------|--------x3-|---|


Intro
 Gtr 1
-|--------------------------------------------|
-|-----------------------------------------0--|
-|----0---0---0------0------0---0---0-----0-0-|
-|---2---0---0------0-0----2---0---0----------|
-|------2---3---3/5-----------2---3---3/5-----|
-|-0---------------------0--------------------|

 Gtr 2
-|-------|
-|-------|
-|-------|
-|-2-----|
-|-2-r---|
-|-0-----|
Pre Verse - x3

Chorus 1
 Gtr 1
-|---------------------x3-|-------------------|
-|------------------------|-------------------|
-|------7-5-4-------------|------7-5-4------7-|
-|-5--5-------5--5--4-5-7-|-5--5-------5--5---|
-|------------------------|-------------------|
-|------------------------|-------------------|

 Gtr 2
-|---------------------------------|--------------------|
-|---------------------------------|--------------------|
-|------5--------------------------|------5---------7---|
-|-2----5-6--5----4----------------|-2----5-6--5----7-6-|
-|-2-6--3----5-6--4-44-555-55-7777-|-2-6--3----5-6--5---|
-|-0---------3----2-22-333-33-5555-|-0---------3--------|
                    ** *** ** ****
-|---------------------------------|-------------------------|
-|---------------------------------|-------------------------|
-|------5--------------------------|------5---------7--------|
-|-2----5-6--5----4----------------|-2----5-6--5----7-r--2---|
-|-2-6--3----5-6--4-44-555-55-7777-|-2-6--3----5-6--5----2-r-|
-|-0---------3----2-22-333-33-5555-|-0---------3---------0---|
                    ** *** ** ****
Intro
 Gtr 1
-|---------------------------|
-|---------------------------|
-|---------------------------|
-|-5-r----4-4h5-r-----7--5-r-|
-|---------------------------|
-|---------------------------|

 Gtr 2
-|--------------------x4-|
-|-----------------------|
-|----0----0----0-----0--|
-|---2----0----0-----0-0-|
-|------2----3---3/5-----|
-|-0---------------------|

Pre Verse
 Gtr 1
-|-------------3--------------|-----------|
-|-------------3--------------|-----------|
-|----0----0---0--------------|----0----0-|
-|---0----0----2--------------|---0----0--|
-|-------------3--------------|-----------|
-|-2----3------------------x3-|-2----3----|

 Gtr 2
-|---------------3----2---2h3-|
-|----------------3----3------|
-|-----------------0----0-----|
-|----------------------------|
-|-------------3--------------|
-|-------------------------x3-|



Pre Chorus
 Gtr 1
-|-3-2---|
-|-----3-|
-|-------|
-|-------|
-|-------|
-|-------|

Chorus 2
 Gtr 1
-|---------------------x3-|----------------------|
-|------------------------|----------------------|
-|------7-5-4-------------|------7-5-4-----------|
-|-5--5-------5--5--4-5-7-|-5--5-------5ó5--/7-r-|
-|------------------------|----------------------|
-|------------------------|----------------------|

 Gtr 2
-|---------------------------------|--------------------|
-|---------------------------------|--------------------|
-|------5--------------------------|------5---------7---|
-|-2----5-6--5----4----------------|-2----5-6--5----7-6-|
-|-2-6--3----5-6--4-44-555-55-7777-|-2-6--3----5-6--5---|
-|-0---------3----2-22-333-33-5555-|-0---------3--------|
                    ** *** ** ****
-|---------------------------------|----------------------|
-|---------------------------------|----------------------|
-|------5--------------------------|------5----------14---|
-|-2----5-6--5----4----------------|-2----5-6--5--------r-|
-|-2-6--3----5-6--4-44-555-55-7777-|-2-6--3----5-6--/12---|
-|-0---------3----2-22-333-33-5555-|-0---------3----------|
                    ** *** ** ****

Bridge 1
 Gtr 1
-|-------------------------x4-|
-|----------------------------|
-|----------------------------|
-|------444-44-555-55-777-777-|
-|-2-22-222-22-333-33-555-555-|
-|-0-00-***-**-***-**-***-***-|
     **

 Gtr 2
-|----------------------------x4-|-------|
-|-------------------------------|-------|
-|-------------------------------|-------|
-|-222-22-222-22-222-22-5555-444-|-555-4-|
-|-------------------------------|-------|
-|-***-**-***-**-***-**-****-***-|-------|


Bridge 2
 Gtr 1
-|------------------------|-------------------------------|
-|--------------88-77-7h8-|-------------------------------|
-|-----7---7--------------|-----7---7-----7----5----4h5p4-|
-|-4h5---5---5------------|-4h5---5---5-----55---55-------|
-|-------*---*------------|-------*---*-----**---**-------|
-|---------------------x3-|-------------------------------|

-|------------------------|---------------------------|
-|--------------88-77-7h8-|---------------------------|
-|-----7---7--------------|-----7---7----77777777-7---|
-|-4h5---5---5------------|-4h5---5---5--77777777-7-8-|
-|-------*---*------------|-------*---*--55555555-5---|
-|---------------------x3-|--------------********-----|

 Gtr 2
-|-------------------------------------------------|
-|-------------------------------------------------|
-|------5--------9---------5---44-444--1111-111111-|
-|-2-----6--2-----6---2-----6----------------------|
-|-2-6--3---2-6--7----2-6--3---22-222--/9-9--9-9-9-|
-|-0--------0---------0----------------------------|

-|-------------------------------------------------------------|
-|-------------------------------------------------------------|
-|------5--------9---------5---44-444--11-1111111111111111-11--|
-|-2-----6--2-----6---2-----6--------------------------------8-|
-|-2-6--3---2-6--7----2-6--3---22-222--/9--9-9-9-9-9-9-9-9--9--|
-|-0--------0---------0--------------------*-*-*-*-*-*-*-*-----|

Chorus 3
 Gtr 1
-|------------------------------|--------------------|
-|------------------------------|--------------------|
-|-12--11---12---141414--161616-|-12--11---12----19--|
-|---6---6----6-----------------|---6---6----6-----6-|
-|-10---9---10--/121212-/141414-|-10---9---10---/17--|
-|------------------------------|--------------------|

-|------------------------------|------------------------------------|
-|------------------------------|------------------------------------|
-|-12--11---12---141414--161616-|-121212-11-12-77-5-4-------7--------|
-|---6---6----6-----------------|----------------------5----7-6--2---|
-|-10---9---10--/121212-/141414-|-101010--9-10-55-3-2--5-6--5----2-r-|
-|------------------------------|----------------------3---------0---|

 Gtr 2
-|---------------------------------|--------------------|
-|---------------------------------|--------------------|
-|------5--------------------------|------5---------7---|
-|-2----5-6--5----4----------------|-2----5-6--5------6-|
-|-2-6--3----5-6--4-44-555-55-7777-|-2-6--3----5-6--5---|
-|-0---------3----2-22-333-33-5555-|-0---------3--------|
                    ** *** ** ****

-|------------------------|------------------------------|
-|------------------------|------------------------------|
-|-999-11-12--5--------7--|-999-11-12--5--------7--------|
-|-------------6--5-----8-|-------------6--5----7-6--2---|
-|-777--9-10--3---5-6--5--|-777--9-10--3---5-6--5----2-r-|
-|----------------3-------|----------------3---------0---|
Outro
 Gtr 1
-|-------------3---------3----------3-|
-|-----3--------3-3-------3--------3--|
-|------0--------0---------0------0---|
-|---2-------2---------2----2----2----|
-|------------------------------2-----|
-|-0-------0---------0----------------|
Suggest correction
Give kudos to tab author, rate the tab!
1 2 3 4 5
comments
print report bad tab
guest
You may want to rate the tab now too:
select rating
Please do not post tabs as comments. Select "correction" instead!