Oops, an error
Loading. Please wait.

Follow Me bass

version 1
version 1

Whole song

Interactive

by Rufio
802 views 1 this week
no commentswrite comment
1 2 3 4 5
1 last vote to show rating
add to favorites
×
Save as Personal and add changes to this tab that will be seen only by you. Learn more ›
×
You can save this tab as Personal to edit and correct it or add notes. All changes will be seen only by you. Learn more »
launch autoscroll
font size
0
reset
guitar tuner
edit
Autoscroll
slow
fast
+/-
esc
set tempo
stop
Author
Difficulty
TABBED BY JONAS SCHLECHTWEG
ORGINAL SONG BY RUFIO

TITLE: follow me

you'll have to find out the rythme yourself i can't tabb out all the rythms hehe. i 
it's almost correct. but the fills in the last part of the song aren't 100% correct :).

ow well enjoy

INTRO/verse

G|--------------------------------------------------|
D|--------------------------------------------------|
A|--3--3--333-3-33--333-3-33---333-3-33--333--------|
E|--------------------------------------------------|

G|--------------------------------------------------|
D|--------------------------------------------------|
A|-0-00--000--0--00--000-0-00-000-0--00-000---------|
E|--------------------------------------------------|


G|--------------------------------------------------|
D|--------------------------------------------------|
A|--------------------------------------------------|
E|--1-11--111--1-11-111--3-33-333----3-33-333-------|


G|--------------------------------------------------|
D|--------------------------------------------------|
A|--3--3--333-3-33--333-3-33---333-3-33--333--------|
E|--------------------------------------------------|

G|--------------------------------------------------|
D|--------------------------------------------------|
A|-0-00--000--0--00--000-0-00-000-0--00-000---------|
E|--------------------------------------------------|

G|--------------------------------------------------|
D|--------------------------------------------------|
A|--------------------------------------------------|
E|--1-11--111--1-11-111--3-33-333--3/10-------------|


G|--------------------------------------------------|
D|--------------------------------------------------|
A|--------------------------------------------------|
E|----5~------3~-------1~------3~-------------------|


G|---------------------------------------------------------------|
D|---------------------------------------------------------------|
A|---------------------------------------------------------------|
E|--555--111--333--555-----888--333--555----111--333--555----333-|


G|------------------------------------------------------|
D|------------------------------------------------------|
A|--333--333-333-333--333-333---------------------------|
E|----------------------------555-555-555-555--555-555--|

G|-----------------------------------------------------|
D|-----------------------------------------------------|
A|-----------------------------333-333-333-333-333-333-|
E|-111-111-111-333---333-333---------------------------|


G|----------------------------------------------------|
D|----------------------------------------------------|
A|----------------------------------------------------|
E|--555-555-555-555-555-555--111-111-111-333-3-3-3-3--|


CHORUS

G|--------------------------------------------------|
D|--------------------------------------------------|
A|--------------------------------------------------|
E|-5555555555555555--1111111111111111---------------|
                                                         PLAY THE WHOLE CHORUS
G|--------------------------------------------------|     2 TIMES
D|--------------------------------------------------|
A|-3333333333333333---------------------------------|
E|-------------------3333333333333333---------------|


POST CHORUS


G|--------------------------------------------------|
D|--------------------------------------------------|
A|--------------------------------------------------|
E|-11--33--55--88----11--33--55--88---1~------------|

G|--------------------------------------------------|
D|--------------------------------------------------|
A|--------------------------------------------------|
E|--555--111--333--555--333-------------------------|


VERSE 2

G|---------------------------------------------------|  STRUM EACH NOTE ALLOT
D|--------7------------------------------------------|  YOU WILL HEAR WHEN THEY
A|-3-----------8--10---------------------------------|  CHANGE :)
E|---------------------------------------------------|

G|--------------------------------------------------|
D|--------------------------------------------------|
A|-3-----12----8--10--------------------------------|
E|--------------------------------------------------|

PLAY THE CHORUS AGAIN

CHORUS

G|--------------------------------------------------|
D|--------------------------------------------------|
A|--------------------------------------------------|
E|-5555555555555555--1111111111111111---------------|
                                                         PLAY THE WHOLE CHORUS
G|--------------------------------------------------|     2 TIMES
D|--------------------------------------------------|
A|-3333333333333333---------------------------------|
E|-------------------3333333333333333---------------|

THEN A POST CHORUS

G|--------------------------------------------------|
D|--------------------------------------------------|
A|--------------------------------------------------|
E|-11--33--55--88----11--33--55--88-----------------|

THEN THE BRIDGE

G|--------------------------------------------------|
D|--------------------------------------------------|
A|--------------------------------------------------|
E|-1-1-1-1-1-1-1-1--3-3-3-3-3-3-3-3-----------------|

G|---------------------------------------------------|
D|---------------------------------------------------|
A|---------------------------5/7777------------------|
E|-5555555555555555-55555555-------------------------|

G|--------------------------------------------------|
D|--------------------------------------------------|
A|--------------------------------------------------|
E|-1111111111111111--3333333333333333---------------|


G|--------------------------------------------------|
D|--------------------------------------------------|
A|------------------7-----875-----------------------|
E|-555--55-5----5-55---5------1--111-11-1-----------|

G|---------------------------------------------------|
D|---------------------------------------------------|
A|-----------77777777--------------------------------|
E|-1-333-3/------------------------------------------|


CHORUS

G|--------------------------------------------------|
D|--------------------------------------------------|
A|--------------------------------------------------|
E|-5555555555555555--1111111111111111---------------|
                                                         PLAY THE WHOLE CHORUS
G|--------------------------------------------------|     2 TIMES
D|--------------------------------------------------|
A|-3333333333333333---------------------------------|
E|-------------------3333333333333333---------------|

THEN A POST CHORUS

G|--------------------------------------------------|
D|--------------------------------------------------|
A|--------------------------------------------------|
E|-11--33--55--88----11--33--55--88-----------------|


G|--------------------------------------------------------|
D|-------------5-------------7------5---------------------|
A|--------------------------7-7---------------------------|
E|-1-1-1-1--3----3-3-3---5------5--8-----1~--3~-----------|


OUTRO

G|--------------------------------------------------------------|
D|--------------------------------------------------------------|
A|--------------------------------------------------------------|
E|--555--111--333--555-----888--333--555----111--333--555-------|


END ON

G|----------|
D|----------|
A|----------|
E|--1~------|

            
            
Suggest correction
Creating personal tab
Creating personal tab
You can edit any tab online and save it as your Personal.

You can edit, replace or remove any tab part or add personal notes – all changes will be seen only by you.

Personal tabs can be accessed anytime from any device, even offline.
Learn more »
Give kudos to tab author, rate the tab!
1 2 3 4 5
comments
print report bad tab
guest
You may want to rate the tab now too:
select rating
Wanna post a correction for this tab? Suggest correction