Oops, an error
Loading. Please wait.

Follow Me bass

version 2
version 2

Whole song

Interactive

by Rufio
660 views 1 this week
no commentswrite comment
1 2 3 4 5
1 last vote to show rating
add to favorites
×
Save as Personal and add changes to this tab that will be seen only by you. Learn more ›
×
You can save this tab as Personal to edit and correct it or add notes. All changes will be seen only by you. Learn more »
launch autoscroll
font size
0
reset
guitar tuner
edit
Autoscroll
slow
fast
+/-
esc
set tempo
stop
Author
++++++++++++++++++++
| Rufio- Follow Me |
++++++++++++++++++++

EADG

Verse
"Youre all I see..."
1.
G|-------------------------------------------------------------------------------------|
D|-------------------------------------------------------------------------------------|
A|-33-333-33-333-33-333-33-222-00-000-00-000-00-000-00-000-----------------------------|--x2
E|---------------------------------------------------------11-111-11-111-33-333-33-333-|

2.
G|-----------------------------------------|
D|-----------------------------------------|
A|-----------------------------------------|
E|-5~--------3~--------1~--------3x--------|

3.
G|----------------------------------------------------------------|
D|----------------------------------------------------------------|
A|-000x-------------000x---333x------000x-------------000x--------|
E|--------111x-333x-------------333x--------111x-333x--------333x-|

Verse
"Inside my..."
4.
G|---------------------------------------------------------------------|
D|---------------------------------------------------------------------|
A|-333x---333x-333x-333x---333x-222x-000x---000x-000x-000x---000x-000x-|
E|---------------------------------------------------------------------|

5.
G|-----------------------------------|
D|-----------------------------------|
A|-----------------------------------|
E|-111x---111x-111x-333x---333x-333x-|

"Im giving in..."
6.
G|---------------------------------------------------------------------|
D|---------------------------------------------------------------------|
A|-333x---333x-333x-333x---333x-222x-000x---000x-000x-000x---000x-000x-|
E|---------------------------------------------------------------------|

7.
G|-----------------------------------|
D|-----------------------------------|
A|-----------------------------------|
E|-111x---111x-111x-333x---3333-3333-|

Chorus
"So... Come home with my tonight..."
8.
G|-------------------------------------------------------------------------|
D|-------------------------------------------------------------------------|
A|-------------------33333333----------------------------33333333----------|
E|-55555555-11111111----------33333333-55555555-11111111----------33333333-|

Outro
9.
G|----------------------------------------------|
D|----------------------------------------------|
A|----------------33x----------------33x--------|
E|-11x--33x--55x-------11x--33x--55x------1~----|

10.
G|------------------------------|
D|------------------------------|
A|-000x-------------000x--------|
E|--------111x-333x--------333x-|

Verse
"Somethings strange..."
11.
G|-------------------------------------22222222-22222222-22222222-22220000-|
D|-------------------------------------------------------------------------|
A|-33333333-33333333-33333333-33332222-------------------------------------|
E|-------------------------------------------------------------------------|

"There is no difference..."
12.
G|-------------------------------------|
D|-33333333-33333333-33333333-33333333-|
A|-------------------------------------|
E|-------------------------------------|

13.
G|-------------------------------------22222222-22222222-22222222-22220000-|
D|-------------------------------------------------------------------------|
A|-33333333-33333333-33333333-33332222-------------------------------------|
E|-------------------------------------------------------------------------|

"It makes no difference..."
14.
G|-------------------------------------|
D|-33333333-33333333-33333333-33333333-|
A|-------------------------------------|
E|-------------------------------------|

Chorus
"So... Come home with my tonight..."
15.
G|-------------------------------------------------------------------------|
D|-------------------------------------------------------------------------|
A|-------------------33333333----------------------------33333333----------|
E|-55555555-11111111----------33333333-55555555-11111111----------33333333-|

Outro
16.
G|-----------------------------------------------------|
D|-----------------------------------------------------|
A|----------------33x--------------------------33x-xxx-|
E|-11x--33x--55x-------11x-xxx-33x-xxx-55x-xxx---------|

Bridge
17.
G|-------------------------------------------------------------------------|
D|----------------------------------------------------------------22223333-|
A|-------------------------------------00000000-00000000-00000000----------|
E|-11111111-11111111-33333333-33333333-------------------------------------|

18.
G|-------------------------------------------------------------------------|
D|----------------------------22223333-------------------------------------|
A|-------------------------------------00000000-00000000-00000000-00000000-|
E|-11111111-11111111-33333333----------------------------------------------|

19.
G|-------------------------------------|
D|-------------------------------------|
A|-------------------------------------|
E|-11111111-11111111-33333333-33333333-|

Chorus
"So... Come home with my tonight..."
20.
G|-------------------------------------------------------------------------|
D|-------------------------------------------------------------------------|
A|-------------------33333333----------------------------33333333----------|
E|-55555555-11111111----------33333333-55555555-11111111----------33333333-|

Outro
21.
G|-------------------------------------------------------------------|
D|-------------------------------------------------------------------|
A|---------------------------33x-xxx-------------------------33x-xxx-|
E|-11x-xxxx-33x-xxxx-55x-xxx---------11x-xxx-33x-xxx-55x-xxx---------|

22.
G|---------------------------------------------------------|
D|---------------------------------------------------------|
A|----------------------------33333333---------------------|
E|-11111111-33333333-55555555----------1~--------3~--------|

23.
G|----------------------------------------------------------|
D|----------------------------------------------------------|
A|-000x-------------000x---333x------000x-------------000x--|
E|--------111x-333x-------------333x--------111x-333x-------|

24.
G|----------------|
D|----------------|
A|----------------|
E|-1~-------------|

Lyrics:

You're all I see these days
but you're so far away
this dream is never ending
you're falling through my broken mind
i've been caught up this time
finally showing some passion
these shattered eyes
have broken on the thought of leaving you
but I must go

Inside my heart
I'm aching spent time on
others faking. you've stolen my heart
and trapped my mind
I'm giving in to you
I'm lost again
I see there is no difference were still alone

So come home with me tonight
we'll lay till dark turns light
can't fight this feeling in myself
I'm lost in thoughts.
we'll wave... you're gone
silence evolves
we'll wave... you're gone
follow me home

Something strange in me
I feel the same for you
but there is no difference
we're still alone
there is no need in crying
there is no need in dying
it makes no difference
were still alone

+++++++++++++++++++++++++++++++++
| RaiLeff                       |
| Underground__Dora@Hotmail.Com |
+++++++++++++++++++++++++++++++++
Suggest correction
Creating personal tab
Creating personal tab
You can edit any tab online and save it as your Personal.

You can edit, replace or remove any tab part or add personal notes – all changes will be seen only by you.

Personal tabs can be accessed anytime from any device, even offline.
Learn more »
Give kudos to tab author, rate the tab!
1 2 3 4 5
comments
print report bad tab
guest
You may want to rate the tab now too:
select rating
Wanna post a correction for this tab? Suggest correction