Oops, an error
Loading. Please wait.

Goodbye bass

version 1
version 1

Whole song

by Rufio
244 views 1 this week
2 commentsread comments
1 2 3 4 5
2 more votes to show rating
add to favorites
×
Save as Personal and add changes to this tab that will be seen only by you. Learn more ›
×
You can save this tab as Personal to edit and correct it or add notes. All changes will be seen only by you. Learn more »
launch autoscroll
font size
0
reset
guitar tuner
edit
Autoscroll
slow
fast
+/-
esc
set tempo
stop
Author
++++++++++++++++++
| Rufio- Goodbye |
++++++++++++++++++

Took me so long just to figure out
such a short tab
Enjoy!

Tuning: EADG

Intro
1.
G|-7/8~-|
D|------|
A|------|
E|------|

Chorus
"Goodbye my lonely life..."
2.
G|--------------------------------5555----------------------------------------|
D|-------------------00000000-1111-----5555555-4-5555555-4-3333333-2-33333333-|
A|-11111111-00000000----------------------------------------------------------|--x2
E|----------------------------------------------------------------------------|

"They're true..." 
3.
G|-----------------------5/7~-7-77-------------------------------------|
D|-1-1-1-1-1-1-1-1-3-3-3-----------00000000-00000000-11111111-11111111-|
A|---------------------------------------------------------------------|
E|---------------------------------------------------------------------|

"And say goodbye.." 
4.
G|-----------------5-5-5-5-5-5-5-5-|
D|-1-1-1-1-1-1-1-1-----------------|
A|---------------------------------|
E|---------------------------------|

Verse
"All that I've wanted from you..."
5.
G|-33333333-22222222-00000000-88888888-33333333-22222222-00000000-1010101010101010-|
D|---------------------------------------------------------------------------------|
A|---------------------------------------------------------------------------------|
E|---------------------------------------------------------------------------------|

"Stumbling over myself..." 
6.
G|----------------------------3-3-2-3--------------------------------------|
D|-11111111-33333333-55555555----------11111111-11111111-33333333-33333333-|
A|-------------------------------------------------------------------------|
E|-------------------------------------------------------------------------|

Chorus
"Goodbye my lonely life..."
7.
G|--------------------------------5555----------------------------------------|
D|-------------------00000000-1111-----5555555-4-5555555-4-3333333-2-33333333-|
A|-11111111-00000000----------------------------------------------------------|--x2
E|----------------------------------------------------------------------------|

In this part there are no '11's, just 1 ;)

"Theyre true..." 
8.
G|------------------------------33-22-33-55-33-22-00---------------33--33--3-|
D|-11111111-1----------------11----------------------------------11--11--11--|
A|---------------------------------------------------------------------------|
E|------------1~-33x33-11x11-------------------------33x33-11x11-------------|

"Im following over fighting..." 
9.
G|----------------33-22-33-55-33-22-00-|
D|-------------11----------------------|
A|-------------------------------------|
E|-33x33-11x11-------------------------|

"Beliefs... When I can feel it..." 
10.
G|-0~-3/10~-6h7\5x--------|
D|--------------------1~--|
A|------------------------|
E|------------------------|

Lyrics:

Goodbye my lonely life,
You're shaking restless in thoughts.
Goodbye my lonely life,
You're making dreams come true,
They're true.

So hold my hand,
And say goodbye.
All that I wanted from you,
Was something that I could feel less when I need.
Stumbling over myself,
I can't be on my own

Well, goodbye my lonely life,
You're shaking restless in thoughts.
Goodbye my lonely life,
You're making dreams come true,
They're true.

I can't depend on following hopes and dreams,
When I can feel it all.
I'm following over fighting for my beliefs,
When I can feel it

+++++++++++++++++++++++++++++++++
| RaiLeff                       |
| Underground__Dora@Hotmail.Com |
+++++++++++++++++++++++++++++++++
Suggest correction
Creating personal tab
Creating personal tab
You can edit any tab online and save it as your Personal.

You can edit, replace or remove any tab part or add personal notes – all changes will be seen only by you.

Personal tabs can be accessed anytime from any device, even offline.
Learn more »
Give kudos to tab author, rate the tab!
1 2 3 4 5
comments
print report bad tab
2 comments total.
0 reply
rufiopunkrock 596 May 02, 2007 03:38 PM

hey raileff
this tab is so good
but I listen that final is sounds different
and the solo guitar with bass is different
I listening to do other notes in D

I rate 4

Good Job men

0 reply
RaiLeff 12,922 May 03, 2007 04:39 PM

Yeeah!
The final... Im sure its different
Thx anyway
Ill try to correct it

guest
You may want to rate the tab now too:
select rating
Wanna post a correction for this tab? Suggest correction