Oops, an error
Loading. Please wait.

Interlude bass

by Rufio
199 views 1 this week
2 commentsread comments
1 2 3 4 5
2 more votes to show rating
add to favorites
×
Save as Personal and add changes to this tab that will be seen only by you. Learn more ›
×
You can save this tab as Personal to edit and correct it or add notes. All changes will be seen only by you. Learn more »
launch autoscroll
font size
0
reset
guitar tuner
edit
Autoscroll
slow
fast
+/-
esc
set tempo
stop
Author
++++++++++++++++++++++
| Rufio- Interlude 1 |
++++++++++++++++++++++

Hey, this is the first Interlude
in The Comfort Of Home (#4)

EADG

1.
G|---------------------------------|
D|-------3-------3-------3-------3-|
A|-5535-5--5535-5--5535-5--5535-5--|
E|---------------------------------|

2.
G|---------------------------------|
D|-------3-------3-------2-------2-|
A|-1101-1--1101-1--3323-3--3323-3--|
E|---------------------------------|

3.
G|---------------------------------|
D|-------3-------3-------3-------3-|
A|-5535-5--5535-5--5535-5--5535-5--|
E|---------------------------------|

4.
G|---------------------------------|
D|-------3-------3-------2-------2-|
A|-1101-1--1101-1--3323-3--3323-3--|
E|---------------------------------|

5.
G|---------------------------------|
D|-------3-------3-------3-------3-|
A|-5535-5--5535-5--5535-5--5535-5--|
E|---------------------------------|

6.
G|---------------------------------|
D|-------3-------3-------2-------2-|
A|-1101-1--1101-1--3323-3--3323-3--|
E|---------------------------------|

0:21
7.
G|----|
D|----|
A|-5~-|
E|----|

8.
G|---------------------------------|
D|-------3-------3-------3-------3-|
A|-5535-5--5535-5--5535-5--5535-5--|
E|---------------------------------|

9.
G|---------------------------------|
D|-------3-------3-------2-------2-|
A|-1101-1--1101-1--3323-3--3323-3--|
E|---------------------------------|

10.
G|---------------------------------|
D|-------3-------3-------3-------3-|
A|-5535-5--5535-5--5535-5--5535-5--|
E|---------------------------------|

11.
G|---------------------------------|
D|-------3-------3-------2-------2-|
A|-1101-1--1101-1--3323-3--3323-3--|
E|---------------------------------|

0:37
12.                       13.
G|---------------------| |----------------------|
D|---------------------| |----------------------|
A|------1111------3333-| |------1111-11-11-1----| 1s not 11s
E|-3333------1111------| |-3333--------------1x-|

14.                       15.
G|---------------------| |----------------------|
D|---------------------| |----------------------|
A|------1111------3333-| |------1111-11-11-1----| 1s not 11s
E|-3333------1111------| |-3333--------------1x-|

0:49
16.
G|---------------------------------|
D|-------3-------3-------3-------3-|
A|-5535-5--5535-5--5535-5--5535-5--|
E|---------------------------------|

17.
G|----|
D|----|
A|-5~-|
E|----|

Great instrumental ;)

No lyrics :P

+++++++++++++++++++++++++++++++++
| RaiLeff                       |
| Underground__Dora@hotmail.com |
+++++++++++++++++++++++++++++++++

            
            
Suggest correction
Creating personal tab
Creating personal tab
You can edit any tab online and save it as your Personal.

You can edit, replace or remove any tab part or add personal notes – all changes will be seen only by you.

Personal tabs can be accessed anytime from any device, even offline.
Learn more »
Give kudos to tab author, rate the tab!
1 2 3 4 5
comments
print report bad tab
2 comments total.
0 reply
RaiLeff 12,922 Mar 05, 2007 10:51 AM

Hey guys, I'm sure this is not #4 in the CD
I dunno why I wrote that lol
But neways is the one that has the cool bass

0 reply
rufiopunkrock 596 Apr 14, 2007 09:08 AM

this tab is not #4 interlude in the CD
this tab is #12 interlude in THE COMFORT OF HOME
but is excellent tab

guest
You may want to rate the tab now too:
select rating
Wanna post a correction for this tab? Suggest correction