Oops, an error
Loading. Please wait.

Let Fate Decide bass

version 1
version 1

Whole song

Interactive

by Rufio
337 views 1 this week
1 commentread comment
1 2 3 4 5
1 last vote to show rating
add to favorites
×
Save as Personal and add changes to this tab that will be seen only by you. Learn more ›
×
You can save this tab as Personal to edit and correct it or add notes. All changes will be seen only by you. Learn more »
launch autoscroll
font size
0
reset
guitar tuner
edit
Autoscroll
slow
fast
+/-
esc
set tempo
stop
Author
++++++++++++++++++++++++++
| Rufio- Let Fate Decide |
++++++++++++++++++++++++++

EADG

| ~x : Ring and mute right away

Intro
1.
G|-------------------------------------|
D|-------------------------------------|
A|-------------------------------------|
E|-444~x----444~x----000~x----222~x----|

2.
G|-----4-3-------------4-3-------------8-7-------------4-3---------|
D|---------4-3-4-1---------4-3-4-1---------8-7-8-4---------4-1-4-6-|
A|-----------------------------------------------------------------|
E|-444-------------444-------------000-------------222-------------|

Verse
"The first and last time"
3.
G|-------------------------------------|------------------------------------------|
D|-------------------------------------|------------------------------------------|
A|-------------------------------------|------------------------------------------|
E|-444~x----444~x----000~x----222~x----|-444~x----444~x----000~x----222~x--00-7\1-|

Pre-Chorus
"We'll throw away..."
4.
G|------------------------------------------------------------|
D|------------------------------------------------------------|
A|------2-1-----------2-4-2-1-------2/4-2------1-1~-6-4~-2----|
E|-0-0~-----2-0--2-2~----------4-4~-------4-2--------------2x-|

Chorus
"All I can say..."
5.
G|-----------------------------------------------------------------------|
D|-----------------------------------------------------------------------|
A|---------------------------2-1-2-4-6-4-2-4-----------------------------|
E|-4444444--0000000--2222222------------------4444444--0000000--2222222x-|

Verse
"My mind has settled..."
6.
G|-------------------------------------|------------------------------------------|
D|-------------------------------------|------------------------------------------|
A|-------------------------------------|------------------------------------------|
E|-444~x----444~x----000~x----222~x----|-444~x----444~x----000~x----222~x--00-7\1-|

Pre-Chorus
"You'll take away..."
7.
G|------------------------------------------------------------|
D|------------------------------------------------------------|
A|------2-1-----------2-4-2-1-------2/4-2------1-1~-6-4~-2----|
E|-0-0~-----2-0--2-2~----------4-4~-------4-2--------------2x-|

Chorus
"All I can say..."
8.
G|-----------------------------------------------------------------------|
D|-----------------------------------------------------------------------|
A|---------------------------2-1-2-4-6-4-2-4-----------------------------|
E|-4444444--0000000--2222222------------------4444444--0000000--2222222x-|

Outro
9.
G|-----------------------------------------|
D|-----------------------------------------|
A|-----------------------------6-4-2-------|--x2
E|-000x----000x----222x----222-------4-2-0-|

"You said your working for it..."
10.
G|-----------------------------------------|
D|-----------------------------------------|
A|-----2-2-----2-2-----2-2-----6-4-2-------|
E|-000--2--000--2--222--2--222-------4-2-0-|

11.
G|--------------------------------|
D|--------------------------------|
A|-----2-2-----2-2-----2-2--------|
E|-000--2--000--2--222--2--222-2x-|

Chorus
"All I can say..."
12.
G|--------------------------------------------------------------------------------------|
D|--------------------------------------------------------------------------------------|
A|---------------------------2-1-2-4-6-4-2-4----------------------------222-222-111-444-|
E|----------0000000--2222222------------------4444444--0000000--2222222-----------------|

"All I can say..."
13.
G|------------------------------------------------------------|
D|---------------------------------4-2------------------------|
A|-----6-4-2-1-------6-4-2-1-----------4-2----2-1-2-4-6-4-2-4-|
E|-444---------2-444---------2-000---------2------------------|

"Im looking back at my regrets..."
14.
G|--------------------------------------------|
D|---------------------------------4-2--------|
A|-----6-4-2-1-------6-4-3-1-----------4-2----|
E|-444---------2-444---------2-000---------2x-|

Lyrics:

The first and last time
Traces of life and look what comes between
I'm simple-minded
You're always trying to win these selfish games

We'll throw away what we're looking for

All I can say is "It's my chance to walk away"
Even I'll let fate decide
You're breaking off like something's in the way
Is it us?

My mind has settled
I'm a living shadow in doubt of shape or size
So lately you answer to sort this out
I know I'll break some time

You'll take away all that I'm asking for

You said you're working for it, but are you fighting for it?
You're just igniting the flame, but it's going down.
You said you're working for it, but are you fighting for it?
You're just igniting the flames.

All I can say is "I know I'll find a way"
Even I'll let fate decide
I'm looking back at my regrets, I'm still the same

+++++++++++++++++++++++++++++++++
| RaiLeff                       |
| Underground__Dora@Hotmail.Com |
+++++++++++++++++++++++++++++++++
Suggest correction
Creating personal tab
Creating personal tab
You can edit any tab online and save it as your Personal.

You can edit, replace or remove any tab part or add personal notes – all changes will be seen only by you.

Personal tabs can be accessed anytime from any device, even offline.
Learn more »
Give kudos to tab author, rate the tab!
1 2 3 4 5
comments
print report bad tab
1 comment total.
0 reply
Zerry007 10 May 04, 2007 01:51 PM

sounds great, exept number10,

guest
You may want to rate the tab now too:
select rating
Wanna post a correction for this tab? Suggest correction