Oops, an error
Loading. Please wait.

One Slowdance Tab

version 1
version 1

Intro

Whole song

Interactive

by Rufio
3,041 views 3 this week
4 commentsread comments
1 2 3 4 5
x 5
add to favorites
×
Save as Personal and add changes to this tab that will be seen only by you. Learn more ›
×
You can save this tab as Personal to edit and correct it or add notes. All changes will be seen only by you. Learn more »
save as personal
new!
launch autoscroll
font size
0
reset
how to read this tab
guitar tuner
Autoscroll
slow
fast
+/-
esc
set tempo
stop
Author
-------------------------------------------------------------------------------
                             One Slowdance - Rufio
-------------------------------------------------------------------------------
Tabbed by:Eric
Email: Mouseman517@comcast.net

Tuning:standard
 Work ou the timeing but you play this part twice.
e|---------------------------------------------------------------------------
B|---------------------------------------------------------------------------
G|---------------------------------------------------------------------------
D|---------------------------4------4-2-1------------------------------------
A|---2--2/4--6--4--2--1--2-------2---------4-6-4--2--2/4--6--4--2--1--2--1---
E|---------------------------------------------------------------------------

Thats basicaly it because the other tabs were horrible.

| /  slide up
| \  slide down
| h  hammer-on
| p  pull-off
| ~  vibrato
| +  harmonic
| x  Mute note
===============================================================================
Suggest correction
comments
print report bad tab
4 comments total. Showing first comments.
0 reply
bensanford07 10 Oct 29, 2004 08:00 PM

e|-------------------------------------------------------------------
B|-------------------------------------------------------------------
G|-------------------------------------------------------------------
D|------------------------4------4-2-1-------------------------------
A|---2--4--6--4--2--1--2-----2---------4-6-4--2--4--6--4--2--1--2--1-
E|-------------------------------------------------------------------

0 reply
J0k3r 240 Sep 22, 2006 07:13 PM

e|--------------------------------------------------------|
B|--------------------------------------------------------|
G|--------------------------------------------------------|
D|-------------------4-4-2-1-2-1--------------------------|
A|-2-2h4-6-4-2-1-2-4------------4-2-2h4-6-4-2-1-2-1-------|
E|--------------------------------------------------------|

my interpretation of the intro

0 reply
J0k3r 240 Oct 02, 2006 06:08 PM

e|--------------------------------------------------------|
B|--------------------------------------------------------|
G|--------------------------------------------------------|
D|-----------------4---4-2-1-2-1--------------------------|
A|-2-2h4-6-4-2-1-2---2---------4-2-2h4-6-4-2-1-2-1--------|
E|--------------------------------------------------------|


my bad...this way i mean

guest
You may want to rate the tab now too:
select rating
Wanna post a correction for this tab? Suggest correction