Oops, an error
Loading. Please wait.

One Slowdance bass

version 2
version 2

Whole song

Interactive

by Rufio
310 views 1 this week
3 commentsread comments
1 2 3 4 5
1 last vote to show rating
add to favorites
×
Save as Personal and add changes to this tab that will be seen only by you. Learn more ›
×
You can save this tab as Personal to edit and correct it or add notes. All changes will be seen only by you. Learn more »
launch autoscroll
font size
0
reset
guitar tuner
edit
Autoscroll
slow
fast
+/-
esc
set tempo
stop
Author
Difficulty
A great song by great artists.
This is the album version not the demo.

~ Let ring
/\ Slide up/down
H Hammer
> Strum

Intro
G|-------------------------------------------------|
D|-------------------------------------------------|
A|--2~-------------------------------2---1h2h1-----|
E|-----0~---0h2h4~---0-2-4~--0~--0h2-----------2~--|

G|--------------------------------2-3~--3h4h3~------|
D|-----2~--2h4h6~-(6)-2-4-6~-(6)-2~-----------------|
A|--2~----------------------------------------------|
E|--------------------------------------------------|

Verse
G|-------------------------------------------------|
D|---------------------2>--6>--4>------2>--6>--4>--|
A|--2>-------------2>--------------2>--------------|
E|-----0>--4>--2>----------------------------------|


G|-------------------------------------------------|
D|-------------------------------------------------|
A|--2>---------------------------------------------|
E|------0>--4>---2>--------------------------------|

Pre Chorus x3
G|-------------------------------------------------|
D|-------------------------------------------------|
A|---------------2>--------------------------------|
E|--0>--2>--4>------2>-----------------------------|

Chorus
G|--------------------------------------------------|
D|--------------------------------------------------|
A|--2>--------------------------2>--1h2h1-------2-1-|
E|------0>--4>--0>--2>--4>--0>------------2>--2-----|

G|--------------6h9h6-------11h9h8h9h8-------------|
D|----------6h8--------8---------------9-----------|
A|--2>/7>------------------------------------------|
E|-------------------------------------------------|

G|-------------------------------------------------|
D|-------------------------------------------------|
A|----------2>--1h2h1~-----------------------------|
E|--4>--0>-----------------------------------------|

Repeat 1st part of the intro
then pre chorus and chorus

Bridge x3
G|------------------------------------------------|
D|------------------------------------------------|
A|--4>---6h7>--2>-------4>---6h7>--2>-------------|
E|-----------------2>-----------------2>----------|

G|------------------------------------------------|
D|------------------------------------------------|
A|--4>---6h7>--9>---------------------------------|
E|------------------------------------------------|

Repeat Chorus

Out Chorus x3
G|------------------------------------------------|
D|------------------------------------------------|
A|--2--2------------------------------------------|
E|-------0---0h2h4---4h0h2------------------------|


G|------------------------------------------------|
D|------------------------------------------------|
A|--2>------------------2>------------------------|
E|------0>--4>--0>--2>-----0>--4>--0>--2>---------|

G|--------------------------------------------------|
D|--------------------------------------------------|
A|--2>--------------------------2>--1h2h1-------2h1-|
E|-----0>---4>--0>--2>--4>--0>------------2>--2-----|


G|-------------------------------------------------|
D|-------------------------------------------------|
A|--2>/7>/11>/9>----------2>--1h2h1-----2~---------|
E|----------------4>--0>------------2~-------------|
Suggest correction
Creating personal tab
Creating personal tab
You can edit any tab online and save it as your Personal.

You can edit, replace or remove any tab part or add personal notes – all changes will be seen only by you.

Personal tabs can be accessed anytime from any device, even offline.
Learn more »
Give kudos to tab author, rate the tab!
1 2 3 4 5
comments
print report bad tab
3 comments total.
0 reply
dannybooy 73 Dec 16, 2006 09:24 AM

i forgot to add.
on the last part of the intro where you hammer 3h4h3, the last note that is played is a 4 on the D string.

0 reply
RaiLeff 12,922 May 01, 2007 02:43 PM

The tab itself is great,
in the intro you should play a A|--1--|
before you play it again ;)

Oh and the crazy part in the chorus:
it doesnt sound perfect..

But its a great tab, and you are way too lazy to write
everything with ">" xD

4* :D!!!

0 reply
dannybooy 73 May 01, 2007 03:14 PM

yea the fast riff its from the power tab it was a mistake to put all those hammers so do w/e you think sounds right

guest
You may want to rate the tab now too:
select rating
Wanna post a correction for this tab? Suggest correction