Oops, an error
Loading. Please wait.

One Slowdance bass

version 3
version 3

Whole song

Interactive

by Rufio
1,643 views 1 this week
1 commentread comment
1 2 3 4 5
x 4
add to favorites
×
Save as Personal and add changes to this tab that will be seen only by you. Learn more ›
×
You can save this tab as Personal to edit and correct it or add notes. All changes will be seen only by you. Learn more »
launch autoscroll
font size
0
reset
guitar tuner
edit
Autoscroll
slow
fast
+/-
esc
set tempo
stop
Author
Difficulty
 R U F I O - O N E  S L O W D A N C E
 ------------------------------------

3. ONE SLOWDANCE

   Tuning: EADG

  Intro

G|-------------------------------------------------------|
D|-------------------------------------------------------|
A|-2~--------------------------------------2---1-2-1-----|
E|------0~---0-2-4~---0--2--4~----0~---0-2-----------2~--|


G|----------------------------------------------------------|
D|----------------------------------------------------------|
A|-1--2~--------------------------------------2---1-2-1-----|
E|------0~---0-2-4~---0--2--4~----0~---0-2--------------2~--|

  Verse
  "You're standing there alone..."

G|----------------------------------------|
D|----------------------------------------| (X4)
A|--2222-222------------------------------|
E|-----------0000-000-4444-444-2222-222---|

  Pre-Chorus
  "I look you in the eyes.."

G|------------------------------------------------------------|
D|-----------------------------------------------------4--4---|
A|----------------------222--------------------------2--22-2--|
E|-000000-222222-444444-----222-000000-222222-444444----------|

G|------------------------------------------------------------|
D|-----------------------------------------------------4------|
A|----------------------222--------------------------2--22~---|
E|-000000-222222-444444-----222-000000-222222-444444----------|

  Chorus
  "You and me dancing the night away.."

G|-------------------------------------------------------------|
D|-------------------------------------------------------------|
A|-222222-------------------------------------222-121----2-1-0-|
E|--------000000-444444-000222-444444-000000-2-------222-------|

G|-------------------6-8-6--6-----------------------------------------|
D|---------------6-9------9--9-8-9-8----------------------------------|
A|-2222/77777777---------------------9----------------222-121---2-1-0-|
E|-------------------------------------444444-000000-2-------2~-------|

  Outro

G|--------------------------------------------------------|
D|--------------------------------------------------------|
A|-222222-------------------------------------222-121-----|
E|--------000002-444444-000222-444444-000000-2-------2~---|

  Verse
  "You're standing there alone..."

G|----------------------------------------|
D|----------------------------------------| (X4)
A|--2222-222------------------------------|
E|-----------0000-000-4444-444-2222-222---|

  Pre-Chorus
  "I look you in the eyes.."

G|------------------------------------------------------------|
D|-----------------------------------------------------4--4---|
A|----------------------222--------------------------2--22-2--|
E|-000000-222222-444444-----222-000000-222222-444444----------|

G|------------------------------------------------------------|
D|-----------------------------------------------------4------|
A|----------------------222--------------------------2--22~---|
E|-000000-222222-444444-----222-000000-222222-444444----------|

  Chorus
  "You and me dancing the night away.."

G|-------------------------------------------------------------|
D|-------------------------------------------------------------|
A|-222222-------------------------------------222-121----2-1-0-|
E|--------000000-444444-000222-444444-000000-2-------222-------|

G|-------------------6-8-6--6-----------------------------------------|
D|---------------6-9------9--9-8-9-8----------------------------------|
A|-2222/77777777---------------------9----------------222-121---2-1-0-|
E|-------------------------------------444444-000000-2-------2~-------|

  Bridge
  "We dont have to talk.."

G|-------------------------------------------------------------|
D|-----------------------------------------------1-2----1-2-1--|
A|-4444446777777-222222--------4444446777777-2222-----2--------|
E|----------------------222222---------------------222---------|

G|--------------------------------|
D|--------------------------------|
A|-4444446777777-9999999-9~-------|
E|--------------------------------|

  Chorus
  "You and me dancing the night away.."

G|-------------------------------------------------------------|
D|-------------------------------------------------------------|
A|-222222-------------------------------------222-121----2-1-0-|
E|--------000000-444444-000222-444444-000000-2-------222-------|

G|-------------------6-8-6--6-----------------------------------------|
D|---------------6-9------9--9-8-9-8----------------------------------|
A|-2222/77777777---------------------9----------------222-121---2-1-0-|
E|-------------------------------------444444-000000-2-------2~-------|

  Outro

G|-------------------------------|
D|-------------------------------|(X4)
A|---2x--2-----------------------|
E|--------0x--0-2-4x---4-0~--2~--|

G|--------------------------------|
D|--------------------------------|(X2)
A|-222222-------------------------|
E|--------000002-444444-000222----|

Chorus
  "You and me dancing the night away.."

G|---------------------------------------------------------------|
D|---------------------------------------------------------------|
A|-222222-------------------------------------222--121-----2-1-0-|
E|--------000000-444444-000222-444444-000000-2----2-----222------|

G|---------------------------------------------------------------------|
D|-----------------666666666-------------------------------------------|
A|-222222\77777777----------99999999-----------------222--121---2-1-0--|
E|------------------------------------444444-000000-2----2----2~-------|

  End
  
G|-------|
D|-------| 
A|--2~---|
E|-------|


Legend Tab

| /  slide Up
| \  slide Down
| h  Hammer-On
| p  Pull-Off
| ~  vibrato
| x  Mute Note

Oscar Olarte/rufiopunkrock
If you have any questions,comments.....oscardanielof@hotmail.com
www.myspace.com/bassnautilius

            
            
Suggest correction
Creating personal tab
Creating personal tab
You can edit any tab online and save it as your Personal.

You can edit, replace or remove any tab part or add personal notes – all changes will be seen only by you.

Personal tabs can be accessed anytime from any device, even offline.
Learn more »
comments
print report bad tab
1 comment total.
0 reply
willmclnz 52 Feb 15, 2009 10:40 PM

Awesome song, awesome tab

guest
You may want to rate the tab now too:
select rating
Wanna post a correction for this tab? Suggest correction