Oops, an error
Loading. Please wait.

Over It bass

version 2
version 2

Whole song

Interactive

by Rufio
176 views 3 this week
no commentswrite comment
1 2 3 4 5
3 more votes to show rating
add to favorites
×
Save as Personal and add changes to this tab that will be seen only by you. Learn more ›
×
You can save this tab as Personal to edit and correct it or add notes. All changes will be seen only by you. Learn more »
launch autoscroll
font size
0
reset
guitar tuner
edit
Autoscroll
slow
fast
+/-
esc
set tempo
stop
Author
Difficulty
 R U F I O - O V E R  I T  
 ------------------------


12. OVER IT
   
   Tuning: EADG

  Intro/Pre-chorus
  "Well its just so little....."

G|------------------------------|
D|------------------------------|
A|--0~-2~-4~-2~-0~-2~-4~-6~-7~--|
E|------------------------------|

  Chorus
  "I was over it before......"

G|------------------------------------------------------------------------------------------|
D|------------------------------------------------------------------------------------------|
A|-------------222-22-222-444-44-444---------------------------222-22-222-444-44-222-22-----|
E|--000-00-000-----------------------555-55-555xxxx-000-00-000--------------------------5~--|

  Verse
  "I can't believe that you're wasting my time....."

G|---------------------------|
D|---------------------------|
A|--4-44x----4-44x----4-44x--|
E|---------------------------|

G|-------------------------------------------------------|
D|-------------------------------------------------------|
A|--------22222-44444-----------------22222-44444--------|
E|--55555-------------555x5x55x-55555-------------55555--|

G|------------------------------|
D|------------------------------|
A|--------22222-44444-66666-7~--|
E|--55555-----------------------|

  Chorus
  "I was over it before......"

G|------------------------------------------------------------------------------------------|
D|------------------------------------------------------------------------------------------|
A|-------------222-22-222-444-44-444---------------------------222-22-222-444-44-222-22-----|
E|--000-00-000-----------------------555-55-555xxxx-000-00-000--------------------------5~--|

G|--------------|
D|--------------|
A|--------------|
E|--5555555555--|

  Bridge
  "And I can't believe anything, when our differences are the same....."

G|------------------------------------------|
D|------------------------------------------| (x2)
A|--444-44-444-4--------------222-22-222-2--|
E|---------------000-00-000-0---------------|

G|-----------------------------------4-6---|
D|--------------------25-------------------| 
A|--444-44-444-4----23--------222-22--2-2--|
E|---------------000----000-0--------------|

G|------------|
D|------------|
A|--4~-2~-0~--|
E|------------|

  Interlude
  "Its over......" 

G|------------|
D|------------| (x2)
A|--4~-2~-0~--|
E|------------|

G|--6~-4~-2~--|
D|------------| 
A|------------|
E|------------|

G|------------|
D|------------| 
A|--4~-2~-0~--|
E|------------|

  Chorus
  "I was over it before......"

G|------------------------------------------------------------------------------------------|
D|------------------------------------------------------------------------------------------|
A|-------------222-22-222-444-44-444---------------------------222-22-222-444-44-222-22-----|
E|--000-00-000-----------------------555-55-555xxxx-000-00-000--------------------------5~--|

G|--------------|
D|--------------|
A|--------------|
E|--5555555555--|

  Chorus
  "I was over it before......"

G|------------------------------------------------------------------------------------------|
D|------------------------------------------------------------------------------------------|
A|-------------222-22-222-444-44-444---------------------------222-22-222-444-44-222-22-----|
E|--000-00-000-----------------------555-55-555xxxx-000-00-000--------------------------5~--|

  End

G|--------------------------|
D|--------------------------|
A|--444-44-4-666-66-6---7~--|
E|--------------------------|





Legend Tab

| /  slide Up
| \  slide Down
| h  Hammer-On
| p  Pull-Off
| ~  vibrato
| x  Mute Note

Oscar Olarte/rufiopunkrock
If you have any questions,comments.....oscardanielof@hotmail.com
www.myspace.com/bassnautilius

            
            
Suggest correction
Creating personal tab
Creating personal tab
You can edit any tab online and save it as your Personal.

You can edit, replace or remove any tab part or add personal notes – all changes will be seen only by you.

Personal tabs can be accessed anytime from any device, even offline.
Learn more »
Give kudos to tab author, rate the tab!
1 2 3 4 5
comments
print report bad tab
guest
You may want to rate the tab now too:
select rating
Wanna post a correction for this tab? Suggest correction