Oops, an error
Loading. Please wait.

Perhaps I Suppose album bass

version 2
version 2

Album

by Rufio
293 views 1 this week
1 commentread comment
1 2 3 4 5
2 more votes to show rating
add to favorites
×
Save as Personal and add changes to this tab that will be seen only by you. Learn more ›
×
You can save this tab as Personal to edit and correct it or add notes. All changes will be seen only by you. Learn more »
launch autoscroll
font size
0
reset
guitar tuner
edit
Autoscroll
slow
fast
+/-
esc
set tempo
stop
Author
Difficulty
 R U F I O - P E R H A P S , I  S U P P O S E
 --------------------------------------------
 1. Above Me
 2. Still
 3. One Slowdance
 4. In My Eyes
 5. She Cries
 6. Dipshit
 7. Just A Memory
 8. Face The Truth
 9. Raining In September
 10. Road To Recovery
 11. Stop Whining
 12. Selfishness
 13. Tears
 14. Save The World
 15. The Wrath


 Oscar Olarte/rufiopunkrock
 If you have any questions,comments.....oscardanielof@hotmail.com
 www.myspace.com/bassnautilius

 The tracks She Cries,and The Wrath
 I take out of Ttabs.com and Ultimate-guitar because it's so hard to listen.

 Thanks by She Cries: Jonas Schlechtweg/carbonbassist
 Thanks by The Wrath: Blake Rakoczi

1. ABOVE ME (VERSION WARPED TOUR 2003 AND VERSION LIVE)

   Tuning: EADG

  Intro

G|-----------------------------------------|
D|-----------------------------------------|  (X3)
A|-----------------------------------------|
E|--55555555-66666666-1010101010-88888888--|

G|-------------------------------------------|
D|-------------------------------------------|  (X1)
A|--------------------1212121212-1010101010--|
E|--55555555-66666666------------------------|

G|-------------------------------------|
D|--------------------10-8-7-87--7-----|
A|-----------------------------10-108--|
E|--6666666666666666-------------------|

  Verse
  "If I was to walk......"

G|---------------------------------------------------------------------------|
D|---------------------------------------------------------------------------|
A|-55555555555555555----------------8888888888888888-------------------------|
E|------------------6666666666666666----------------8888888888888888---------|

G|---------------------------------------------------------------------------|
D|---------------------------------------------------------------------------|
A|-55555555555555555----------------8888888888888888-------------------------|
E|------------------6666666666666666----------------8888888888888888---------|

  Pre-Chorus
  "You showed me life and lived nothing else...."

G|---------------------------------------------------------------------------|
D|---------------------------------------------------------------------------|
A|-8-7-8-10-8-7--------------------10-8-10-12-10-8-----88888888--------------|
E|---------------6666666655555555-------------------------------88888888-----|

G|----------------------------------------------------------------------------------|
D|----------------------------------------------------------------------------------|
A|--------------------------------------------------------------55555555-33333333---|
E|-55555555-66666666-101010101010-888888888----55555555-66666666--------------------|

  Chorus
  "When I look at the stars......"

G|---------------------------------------------------------------------------------|
D|---------------------------------------------------------------------------------| (x2)
A|-------------------------------------------------5555555555555555----------------|
E|-666666666666666688888888888888881010101010101010--------------------------------|

G|--------------------------------------|
D|--------------------------------------| (X1)
A|--------------------------------------|
E|-666666666666666-88888888888888-8~----|

  Outro
  "Angel above me..."

G|-----------------------------------------------------------------|
D|-----------------------------------------------------------------|  (X2)
A|-----------------------------------------------------------------|
E|---55555555-66666666-1010101010-88888888-------------------------|

  Bridge
  "To look at the mountains vast and great...."

G|-------------------------------------------------------------------------------|
D|-------------------------------------------------------------------------------|
A|----------555-55-55---------777-555--------------------------------------------|
E|-666-66-66---------555-55-55---------6666666666666666-8888888888\1212121212----|

G|---------------------------------------------------------------------------|
D|---------------------------------------------------------------------------|
A|----------555-55-55---------777-555----------------------------------------|
E|-666-66-66---------555-55-55---------6666666666666666-88888888888888-8x----|

  Verse
  "If I was to walk......"

G|---------------------------------------------------------------------------|
D|---------------------------------------------------------------------------|
A|-55555555555555555----------------8888888888888888-------------------------|
E|------------------6666666666666666----------------888-888-8888-8-88-888----|

G|-------------------------------------------------------|
D|-------------------------------------------------------|
A|-55555555555555555-------------------8x----------------|
E|------------------6666666666666666--------8~-----------|

  Pre-Chorus
  "You showed me life and lived nothing else...."

G|---------------------------------------------------------------------------|
D|---------------------------------------------------------------------------|
A|-8-7-8-10-8-7--------------------10-8-10-12-10-8-----88888888--------------|
E|---------------6666666655555555-------------------------------88888888-----|

G|----------------------------------------------------------------------------------|
D|----------------------------------------------------------------------------------|
A|--------------------------------------------------------------55555555-33333333---|
E|-55555555-66666666-101010101010-888888888----55555555-66666666--------------------|

  Chorus
  "When I look at the stars......"

G|---------------------------------------------------------------------------------|
D|---------------------------------------------------------------------------------| (x2)
A|-------------------------------------------------5555555555555555----------------|
E|-666666666666666688888888888888881010101010101010--------------------------------|

G|--------------------------------------|
D|--------------------------------------| (X1)
A|--------------------------------------|
E|-666666666666666-88888888888888-8~----|

  Outro
  "Angel above me..."

G|-----------------------------------------------------------------|
D|-----------------------------------------------------------------|  (X2)
A|-----------------------------------------------------------------|
E|---55555555-66666666-1010101010-88888888-------------------------|

  Bass Solo........(I'm not sure about this solo)

G|--------------------------------------------------------------------------------------|
D|--------------------------------------------------------------------------------------|
A|--------------------------------------------------------------------------------------|
E|---55x---66x----101010-1010-10-888-88-888---55x---66x----101010-1010-10-888-88-888----|


G|-----------------------------------------------------------------|
D|--------------------------------------10h1210----12--------------|
A|----------------------------------1012-------1312--13p12---------|
E|---555-55-555-666-66-666--10101213----------------------1210-----|


G|-------------------------------------------------------------|
D|-------------------------1212101088----1010p88---------------|
A|-----------------------------------1212-------1212p1010------|
E|---555-55-555-666-66-666-------------------------------------|

  End

G|-------------|
D|-------------|
A|--8~--8x-----|
E|-------------|

2. STILL

   Tuning: EADG

  Intro

G|------------6---9-----------6--------------------------9--------------------|
D|------7--9----------7---9---------------7----9----11---------7----9---11----|
A|--0-0--0--0---0---0---0---0---------7-7---7----7-----7---7-----7----7-------|
E|----------------------------------------------------------------------------|

G|------2----4------6----9-----2-----4------6--------2---4---6---9---7---6h7p6-|
D|--0-0---0-----0-----0-----0-----0-----0-------0-0----0---0---0---0---0-------|
A|-----------------------------------------------------------------------------|
E|-----------------------------------------------------------------------------|

G|------------6---9-----------6--------------------------9--------------------|
D|------7--9----------7---9---------------7----9----11---------7----9---11----|
A|--0-0--0--0---0---0---0---0---------7-7---7----7-----7---7-----7----7-------|
E|----------------------------------------------------------------------------|

G|------2----4------6----9-----2-----4------6--------2---4---6---9---7---6h7p6-|
D|--0-0---0-----0-----0-----0-----0-----0-------0-0----0---0---0---0---0-------|
A|-----------------------------------------------------------------------------|
E|-----------------------------------------------------------------------------|

G|-------------------------------------------------------------------------------|
D|-------------------------------------------------------------------------------|
A|-------------------------------------5555555555555555/12121212121212121112-----|
E|-2222222222222222--0000000000000000---------------------------------------12---|

G|---------------------------------------------------------------------------|
D|---------------------------------------------------------------------------|
A|---------------------------------------555555555555555555555555\12~--------|
E|--2222222222222222--0000000000000000---------------------------------------|

  Verse
  "Trapped inside of your eyes......"

G|--------------------------------------------------|
D|--------------------------------------------------| (x4)
A|-----------------------5555555555555555555--------|
E|--22222222--00000000------------------------------|

  Pre-Chorus
  "Although I can see......"

G|---------------------------------------------|
D|---------------------------------------------|
A|--55555555--77777777--99999999---------------|
E|-------------------------------55555555------|

G|-------------------------------9-9-------------9-9-------------------------|
D|---------------------------7-9-----9p7-7-7-9h7-----9p7---------------------|
A|---55555555--77777777--9-9-------------------------------------------------|
E|---------------------------------------------------------------------------|

G|---------------------------------------------|
D|---------------------------------------------|
A|--55555555--77777777--99999999-77777777------|
E|---------------------------------------------|

 "Everyword...everything...."

G|---------------------------------------------|
D|---------------------------------------------|
A|--555555555555555--777777777777777777--------|
E|---------------------------------------------|

  Chorus
  "You're watching......"

G|-------------------------------------------------------------------------------------|
D|--------------------------------------------------------------------77--77--99--99---|
A|----------------------555-55-555-555-55-555-----------------------55--55--77--77-----|
E|-555-55-555-555-55-555---------------------555-55-555-555-55-555---------------------|

G|---------------------------------------------------------|
D|---------------------------------------------------------|
A|-----------------555-555-555-555------------------5~--7~-|
E|-222-222-222-222-----------------222-222-222-222---------|


G|---------------------------------------------------------------------------|
D|---------------------------------------------------------------------------|
A|---------------------------------------555555555555555555555555\12~--------|
E|--2222222222222222--0000000000000000---------------------------------------|

 Verse
  "Trapped inside of your eyes......"

G|--------------------------------------------------|
D|--------------------------------------------------| (x4)
A|-----------------------5555555555555555555--------|
E|--22222222--00000000------------------------------|

  Pre-Chorus
  "Although I can see......"

G|---------------------------------------------|
D|---------------------------------------------|
A|--55555555--77777777--99999999---------------|
E|-------------------------------55555555------|

G|-------------------------------9-9-------------9-9-------------------------|
D|---------------------------7-9-----9p7-7-7-9h7-----9p7---------------------|
A|---55555555--77777777--9-9-------------------------------------------------|
E|---------------------------------------------------------------------------|

G|---------------------------------------------|
D|---------------------------------------------|
A|--55555555--77777777--99999999-77777777------|
E|---------------------------------------------|

 "Everyword...everything...."

G|---------------------------------------------|
D|---------------------------------------------|
A|--555555555555555--777777777777777777--------|
E|---------------------------------------------|

  Chorus
  "You're watching......"

G|-------------------------------------------------------------------------------------|
D|--------------------------------------------------------------------77--77--99--99---|
A|----------------------555-55-555-555-55-555-----------------------55--55--77--77-----|
E|-555-55-555-555-55-555---------------------555-55-555-555-55-555---------------------|

G|---------------------------------------------------------|
D|---------------------------------------------------------|
A|-----------------555-555-555-555------------------5~--7~-|
E|-222-222-222-222-----------------222-222-222-222---------|

  Bridge
  "Tears of unseen light....."

G|------2-------------------------------|
D|----2---2-----------------------------| (X3)
A|--0--------555-55-55-777-77-77--------|
E|--------------------------------------|

  "Heart stopping....."

G|------2-------------------------------|
D|----2---2-----------------------------|
A|--0--------5555555555-7777777777------|
E|--------------------------------------|

  Chorus
  "You're watching......"

G|-------------------------------------------------------------------------------------|
D|--------------------------------------------------------------------77--77--99--99---|
A|----------------------555-55-555-555-55-555-----------------------55--55--77--77-----|
E|-555-55-555-555-55-555---------------------555-55-555-555-55-555---------------------|

G|-------------------------------------------------------------------|
D|-------------------------------------------------------------------|
A|-----------------555-555-555-555------------------555-555-777-777--|
E|-222-222-222-222-----------------222-222-222-222-------------------|

G|------------------------------------------------------|
D|------------------------------------------------------|
A|-----------------555-555-555-555----------------------|
E|-222-222-222-222-----------------222-222-222-222------|

  End
  "And time stands still....."

G|------------------|
D|------------------|
A|--5~---7~---------|
E|------------5~----|

3. ONE SLOWDANCE

   Tuning: EADG

  Intro

G|-------------------------------------------------------|
D|-------------------------------------------------------|
A|-2~--------------------------------------2---1-2-1-----|
E|------0~---0-2-4~---0--2--4~----0~---0-2-----------2~--|


G|----------------------------------------------------------|
D|----------------------------------------------------------|
A|-1--2~--------------------------------------2---1-2-1-----|
E|------0~---0-2-4~---0--2--4~----0~---0-2--------------2~--|

  Verse
  "You're standing there alone..."

G|----------------------------------------|
D|----------------------------------------| (X4)
A|--2222-222------------------------------|
E|-----------0000-000-4444-444-2222-222---|

  Pre-Chorus
  "I look you in the eyes.."

G|------------------------------------------------------------|
D|-----------------------------------------------------4--4---|
A|----------------------222--------------------------2--22-2--|
E|-000000-222222-444444-----222-000000-222222-444444----------|

G|------------------------------------------------------------|
D|-----------------------------------------------------4------|
A|----------------------222--------------------------2--22~---|
E|-000000-222222-444444-----222-000000-222222-444444----------|

  Chorus
  "You and me dancing the night away.."

G|-------------------------------------------------------------|
D|-------------------------------------------------------------|
A|-222222-------------------------------------222-121----2-1-0-|
E|--------000000-444444-000222-444444-000000-2-------222-------|

G|-------------------6-8-6--6-----------------------------------------|
D|---------------6-9------9--9-8-9-8----------------------------------|
A|-2222/77777777---------------------9----------------222-121---2-1-0-|
E|-------------------------------------444444-000000-2-------2~-------|

  Outro

G|--------------------------------------------------------|
D|--------------------------------------------------------|
A|-222222-------------------------------------222-121-----|
E|--------000002-444444-000222-444444-000000-2-------2~---|

  Verse
  "You're standing there alone..."

G|----------------------------------------|
D|----------------------------------------| (X4)
A|--2222-222------------------------------|
E|-----------0000-000-4444-444-2222-222---|

  Pre-Chorus
  "I look you in the eyes.."

G|------------------------------------------------------------|
D|-----------------------------------------------------4--4---|
A|----------------------222--------------------------2--22-2--|
E|-000000-222222-444444-----222-000000-222222-444444----------|

G|------------------------------------------------------------|
D|-----------------------------------------------------4------|
A|----------------------222--------------------------2--22~---|
E|-000000-222222-444444-----222-000000-222222-444444----------|

  Chorus
  "You and me dancing the night away.."

G|-------------------------------------------------------------|
D|-------------------------------------------------------------|
A|-222222-------------------------------------222-121----2-1-0-|
E|--------000000-444444-000222-444444-000000-2-------222-------|

G|-------------------6-8-6--6-----------------------------------------|
D|---------------6-9------9--9-8-9-8----------------------------------|
A|-2222/77777777---------------------9----------------222-121---2-1-0-|
E|-------------------------------------444444-000000-2-------2~-------|

  Bridge
  "We dont have to talk.."

G|-------------------------------------------------------------|
D|-----------------------------------------------1-2----1-2-1--|
A|-4444446777777-222222--------4444446777777-2222-----2--------|
E|----------------------222222---------------------222---------|

G|--------------------------------|
D|--------------------------------|
A|-4444446777777-9999999-9~-------|
E|--------------------------------|

  Chorus
  "You and me dancing the night away.."

G|-------------------------------------------------------------|
D|-------------------------------------------------------------|
A|-222222-------------------------------------222-121----2-1-0-|
E|--------000000-444444-000222-444444-000000-2-------222-------|

G|-------------------6-8-6--6-----------------------------------------|
D|---------------6-9------9--9-8-9-8----------------------------------|
A|-2222/77777777---------------------9----------------222-121---2-1-0-|
E|-------------------------------------444444-000000-2-------2~-------|

  Outro

G|-------------------------------|
D|-------------------------------|(X4)
A|---2x--2-----------------------|
E|--------0x--0-2-4x---4-0~--2~--|

G|--------------------------------|
D|--------------------------------|(X2)
A|-222222-------------------------|
E|--------000002-444444-000222----|

Chorus
  "You and me dancing the night away.."

G|---------------------------------------------------------------|
D|---------------------------------------------------------------|
A|-222222-------------------------------------222--121-----2-1-0-|
E|--------000000-444444-000222-444444-000000-2----2-----222------|

G|---------------------------------------------------------------------|
D|-----------------666666666-------------------------------------------|
A|-222222\77777777----------99999999-----------------222--121---2-1-0--|
E|------------------------------------444444-000000-2----2----2~-------|

  End

G|-------|
D|-------|
A|--2~---|
E|-------|

4. IN MY EYES

   Tuning: EADG

  Intro
  "You're graceful.... Your grace falls...."

G|----------------------------------------------------------|
D|----------------------------------------------------------|
A|-6~-----------8--8---6~-----------------------------------|
E|-----3~--5~--6-65-6------3~--5~--666666655555555----------|


G|--------------------------------------------|
D|--------------------------------------------|
A|---------------------111111111-66666666-----|
E|-333333333-111111111------------------------|

G|-------------------------------------------------------------|
D|-----------------------------10-8----------------------------|
A|-6\10101010101010-8888888888-----10-8----------666666666-----|
E|--------------------------------------666666666--------------|

  Verse
  "Another day left waiting......"

G|----------------------------------------------------------------------|
D|-------------------------------------------------------------10-8-7---|
A|-----------------666-666-666-666-----------------888-888-888----------|
E|-333-333-333-333-----------------666-666-666-666----------------------|

G|------------------------------------------------------------------|
D|------------------------------------------------------------------|
A|-----------------666-666-666-666-----------------888-888-888-888--|
E|-333-333-333-333-----------------666-666-666-666------------------|

  Pre-Chorus
  "I thought that this would never end.."

G|------------------------------|
D|------------------------------| (x3)
A|------------------------------|
E|-333-33\555-5\666-6xx6xx6xx6--|

G|--------------------------|
D|--------------------------|
A|--666666666-888888888xxx--|
E|--------------------------|

  Chorus
  "You're graceful... Your grace falls.."

G|-------------------------------------------------------------------------------|
D|-------------------------------------------------------------------------------|
A|-666666666----------------------8--8---666666666----------------------8--8-----|
E|-----------333333333-555555555-6-65-6------------333333333-555555555-6-65-6----|

G|-------|
D|-------|
A|--6~---|
E|-------|

  Post-Chorus

G|--------------------------------------------|
D|--------------------------------------------|
A|---------------------111111111-66666666-----|
E|-333333333-111111111------------------------|

  Verse
  "Another day left crying.."

G|-------------------------------------------------------------|
D|----------------8--8--8--8--8--8--8--8-----12--12---10--10---|
A|--------------66-66-6--6---------------1010--10---88---8-----|
E|-333333333333-------------66-66-6--6-------------------------|

G|------------------------------------------------------------------|
D|------------------------------------------------------------------|
A|-----------------666-666-666-666-----------------888-888-888-888--|
E|-333-333-333-333-----------------666-666-666-666------------------|

  Pre-Chorus
  "I thought that this would never end.."

G|------------------------------|
D|------------------------------| (x3)
A|------------------------------|
E|-333-33\555-5\666-6xx6xx6xx6--|

G|--------------------------|
D|--------------------------|
A|--666666666-888888888xxx--|
E|--------------------------|

  Chorus
  "You're graceful... Your grace falls.."

G|-------------------------------------------------------------------------------|
D|-------------------------------------------------------------------------------|
A|-666666666----------------------8--8---666666666----------------------8--8-----|
E|-----------333333333-555555555-6-65-6------------333333333-555555555-6-65-6----|

  Chorus Variation
  "You're graceful... Your grace falls.."

G|---------------------------------------------|
D|---------------------------------------------|
A|-6~------------8--8---6~------------8--------|
E|-----33x--5~--6-65-6------33x--5~--6-65x-----|

  Outro

G|-----------------------------------------------|
D|-----------------------------------------------| (x2)
A|------------6666666666------------8888888888---|
E|-3333333333------------6666666666--------------|

G|-------------------------------------------|
D|-------------------------------------------| (x2)
A|---------666-666-66-111-11~-\888-888-88----|
E|-333-33~-----------------------------------|

  End

G|------------|
D|------------|
A|------------|
E|--3~---3x---|

5. SHE CRIES

   Tuning: DADG

   Thanks to Jonas Schlechtweg but this song is so hard to tabulate, and I made a little changes

  Intro

G|--9-9-9-9-9-9-9-9-9--2-2-2-2-2-2-----6-6-6-6-6-6-6-6--2-2-2-2-2-2-2--|
D|--7-7-7-7-7-7-7-7-7--0-0-0-0-0-0--2--4-4-4-4-4-4-4-4--0-0-0-0-0-0-0--| (x4)
A|---------------------------------------------------------------------|
D|---------------------------------------------------------------------|

  Verse
  "Gone again she said......."

G|------------------------------------------------------------------------------|
D|--7-7-7-7-7-7-7-7-7--------------------4-4-4-4-4-4-4-4-4----------------------| (x2)
A|---------------------5-5-5-5-5-5-5-5-5--------------------5-5-5-5-5-5-5-5-5---|
D|------------------------------------------------------------------------------|

  Pre-Chorus
  "So you sail away......"

G|--------------------------------------------------------------------|
D|--------------------------------------------------------------------| (x2)
A|----------------------------------5-5-5-5-5-5-5-5-5-5-5-5-5-5-5-5---|
D|-2-2-2-2-2-2-2-2--4-4-4-4-4-4-4-4-----------------------------------|

G|--------------------------------------------------------------------|
D|--------------------------------------------------------------------| (x2)
A|---------------------------5-5-5-5-5-----5-5-5-5-5------------------|
D|--2-2-2-2-2---4-4-4-4-4---------------------------------------------|

  Chorus

G|------------------------------------------------------------------|
D|--7--7--7-7-7--------------------4--4--4-4-4----2--2-2-2--2--2----| (x2)
A|-----------------5--5-5--5--5-------------------------------------|
D|------------------------------------------------------------------|

  Verse
  "Weakened from the pain....."

G|------------------------------------------------------------------------------|
D|--7-7-7-7-7-7-7-7-7--------------------4-4-4-4-4-4-4-4-4----------------------| (x2)
A|---------------------5-5-5-5-5-5-5-5-5--------------------5-5-5-5-5-5-5-5-5---|
D|------------------------------------------------------------------------------|

  Pre-Chorus
  "So you sail away......"

G|--------------------------------------------------------------------|
D|--------------------------------------------------------------------| (x2)
A|----------------------------------5-5-5-5-5-5-5-5-5-5-5-5-5-5-5-5---|
D|-2-2-2-2-2-2-2-2--4-4-4-4-4-4-4-4-----------------------------------|

G|--------------------------------------------------------------------|
D|--------------------------------------------------------------------|
A|---------------------------5-5-5-5-5-----5-5-5-5-5------------------|
D|--2-2-2-2-2---4-4-4-4-4---------------------------------------------|

G|--------------------------7777777777777-----|
D|--------------------------------------------|
A|--------------------------------------------|
D|--2-2-2-2-2---4-4-4-4-4---------------------|

  Chorus
  "Alone, she cries....."

G|---9--9-9-9-9--9-------------------------------------------------|
D|---7--7-7-7-7--7------------------4-4-4-4--2-2-2-2---------------| (x2)
A|------------------------------------------------------454\5------|
D|-----------------0-0x0--0x-0-0-0--------------------0------------|

  Bridge
  "See this is real.."

G|-----------------------------------------------------------------------|
D|-----------------------------------------------------------------------| (x4)
A|------------------------------------------------------5-5-5-5-5-5-5-5--|
D|--4-4-4-4-4-4-4-4---2-2-2-2-2-2-2-2---7-7-7-7-7-7-7-7------------------|

  Pre-Chorus
  "So you sail away......"

G|------------------------------------------------------------------|
D|------------------------------------------------------------------| (x4)
A|----------------------------------5-5-5-5-5-5-5-5-5-5-5-5-5-5-5-5-|
D|-2-2-2-2-2-2-2-2--4-4-4-4-4-4-4-4---------------------------------|

  Chorus
  "Alone, she cries....."

G|---9--9-9-9-9--9-------------------------------------------------|
D|---7--7-7-7-7--7------------------4-4-4-4--2-2-2-2---------------| (x2)
A|------------------------------------------------------454\5------|
D|-----------------0-0x0--0x-0-0-0--------------------0------------|

  Outro

G|-----------------------------------------------------------------------|
D|-----------------------------------------------------------------------| (x4)
A|-----------------------------------------------------------------------|
D|---4-4-4-4-4-4-4-4--2-2-2-2-2-2-2-2---0-0-0-0-0-0-0-0-0-0-0-0-0-0-0-0--|

  Chorus Variation
  "No love, no life.."

G|---9--9-9-9-9--9-------------------------------------------------|
D|---7--7-7-7-7--7------------------4-4-4-4--2-2-2-2---------------|
A|------------------------------------------------------454/5------|
D|-----------------0-0x0--0x-0-0-0--------------------0------------|


G|---9--9-9-9-9--9-------------------------------------------------|
D|---7--7-7-7-7--7------------------4-4-4-4--2-2-2-2---------------|
A|------------------------------------------------------454--------|
D|-----------------0-0x0--0x-0-0-0--------------------0------------|

G|------------|
D|------------|
A|--------5---|
D|--00-0~-----|

  End

G|------------------|
D|------------------|
A|------------------|
D|---22222---4x-----|

6. DIPSHIT

   Tuning: EADG

  Intro

G|-------------------------|
D|-------------------------| (x2)
A|--55x--------------------|
E|------55x--77x--23-333---|

  Pre-Verse

G|-----------------------------------|
D|-----------------------------------|
A|--5555555--------------------------|
E|----------5555555-7777777-23-333---|

G|-----------------------------------|
D|-----------------------------------|
A|--5555555-7777777------------------|
E|------------------5555555-23-333---|

G|-----------------------------------------------------|
D|-----------------------------------------------------|
A|---------------------------5555----------------------|
E|--7777-5555-3x---7777-5555------3x---7777-5555-3x----|

G|----------------------|
D|----------------------|
A|----------------------|
E|--77777777-55555555---|

  Verse
  "He said you want my heart in yours....."

G|-----------------------------------------------------------------|
D|-----------------------------------------------------------------| (x2)
A|------------------------------5555555-4-5-4-2--------------------|
E|--3333333333333-5555555555555-----------------23-33-3x-23-33-3x--|

G|-------------------------------|
D|-------------------------------|
A|-------------------------------|
E|--3333333333333-5555555555555--|

  Pre-chorus
  "Im wondering...."

G|-------------------------------------------------------|
D|-------------------------------------------------------|
A|---------------------------5555------------------------|
E|--7777-5555-3x---7777-5555------3333---7777-5555-3x----|

G|----------------------|
D|----------------------|
A|----------------------|
E|--77777777-55555555---|

  Chorus
  "Wrong, what they say is wrong......"

G|----------------------------------------------------|
D|----------------------------------------------------|
A|-5555--------2222--------5555--------2222--0022424--|
E|-------3333--------5555--------3333-----------------|

G|------------------------------------------------------|
D|------------------------------------------------------|
A|-5x555--------2222--------5555--------2222------------|
E|--------3333--------5555--------3333--------5-5-5x----|

  Intro

G|-------------------------|
D|-------------------------|
A|--55x--------------------|
E|------55x--77x--23-333---|

  Pre-Verse

G|-----------------------------------|
D|-----------------------------------|
A|--5555555--------------------------|
E|----------5555555-7777777-23-333---|

G|--------------------------|
D|--------------------------|
A|------------5555----------|
E|--7777-5555------3x-3-3---|

  Verse
  "Over and over I hear your voice......."

G|-----------------------------------------------------------------|
D|-----------------------------------------------------------------| (x2)
A|------------------------------5555555-4-5-4-2--------------------|
E|--3333333333333-5555555555555-----------------23-33-3x-23-33-3x--|

G|-------------------------------|
D|-------------------------------|
A|-------------------------------|
E|--3333333333333-5555555555555--|

  Pre-chorus
  "Im wondering...."

G|-------------------------------------------------------|
D|-------------------------------------------------------|
A|---------------------------5555------------------------|
E|--7777-5555-3x---7777-5555------3333---7777-5555-3x----|

G|----------------------|
D|----------------------|
A|----------------------|
E|--77777777-55555555---|

  Chorus
  "Wrong, what they say is wrong......"

G|----------------------------------------------------|
D|----------------------------------------------------|
A|-5555--------2222--------5555--------2222--0022424--|
E|-------3333--------5555--------3333-----------------|

G|------------------------------------------------------|
D|------------------------------------------------------|
A|-5x555--------2222--------5555--------2222------------|
E|--------3333--------5555--------3333--------5-5-5x----|

  Bridge
  "Your suffering....Is running thin....."

G|--------------------------------------|
D|--------------------------------------|
A|---------------------------5~---------|
E|---7~------3~------7~----------5~-----|

G|----------------------------------------------------------------------|
D|----------------------------------------------------------------------|
A|--2-2-2-2-2-2-2-2-------------------2-2-2-2-2-2-2-2--5-5-5-5-5-5-5-5--|
E|-------------------3-3-3-3-3-3-3-3------------------------------------|

  Chorus
  "Wrong, what they say is wrong........"

G|------------------------------------------------------------|
D|---------5~----------------------5~-------------------------|
A|---5~----------2~----0~----5~-------------------------------|
E|-------------------------------------7777/12----5555\12-----|

  Outro

G|------------------------------------------------------|
D|----------------------------------------------42------|
A|-5555--------2222--------5555--------2222--024--42x---|
E|-------3333--------5555--------3333-------------------|

G|---------------------------------------|
D|---------------------------------------| (x2)
A|-55555555----------22222222------------|
E|----------33333333----------55555555---|

  End

G|------|
D|------|
A|--5~--|
E|------|

7. JUST A MEMORY

   Tuning: EADG

  Intro

G|-------------------------------------------|
D|-------------------------------------------| (x2)
A|--------------------------------55-555-5---|
E|--2222-4444-55555555-2222-4444x------------|

  Verse
  "The sadness comes...."

G|---------------------------------------------|
D|---------------------------------------------| (x2)
A|---------------------------------5555-7777---|
E|--2-4-555555-4444444444-5-4-2222-------------|

  Pre-Chorus
  "Just when I thought....."

G|--------------------------------------------|
D|--------------------------------------------|
A|-----------------------------7-5-4-5-7-4x---|
E|--22222222-44444444-55555555----------------|

G|-----------------------------------------------|
D|-----------------------------------------------|
A|-----------------------------------------------|
E|--222222222-444444444-555555555-1212-1212-12/--|

  Chorus
  "I remember you and me....."

G|----------------------------------------------|
D|----------------------------------------------| (x2)
A|--5555555-------------------------5555-7777---|
E|----------55555555-4-0-2-22222222-------------|

  Intro

G|--------------------------------------------|
D|--------------------------------------------| (x2)
A|---------------------------------55-555-5---|
E|---2222-4444-55555555-2222-4444x------------|

  Verse
  "The love that I have for you..."

G|---------------------------------------------|
D|---------------------------------------------| (x2)
A|---------------------------------5555-7777---|
E|--2-4-555555-4444444444-5-4-2222-------------|

  Pre-Chorus
  "Just when I thought....."

G|-------------------------------------------|
D|-------------------------------------------|
A|----------------------------7-5-4-5-7-4x---|
E|-------------------------------------------|

G|-----------------------------------------------|
D|-----------------------------------------------|
A|-----------------------------------------------|
E|--222222222-444444444-555555555-1212-1212-12/--|

  Chorus
  "I remember you and me....."

G|----------------------------------------------|
D|----------------------------------------------| (x2)
A|--5555555-------------------------5555-7777---|
E|----------55555555-4-0-2-22222222-------------|

  Bridge
  "So, stop me now....."

G|-------------------------------------------|
D|-----------------------------------2222----|
A|--55555555-77777777------------------------|
E|--------------------5555-4444-2222---------|

G|-------------------------------------------|
D|-------------------------------------------|
A|--55555555-77777777------------------------|
E|--------------------5555-4444-2222-0000----|

G|--------------|
D|--------------|
A|--5555-7777x--|
E|--------------|

  Outro

G|-------------------------------------------|
D|-------------------------------------------|
A|--------------------------------55-555-5---|
E|--2222-4444-55555555-2222-4444x------------|

G|-----------------------------------------|
D|-----------------------------------------|
A|-------------------------------55555555--|
E|--2222-4444-55555555-2222-4444-----------|

  End

G|------------|
D|------------|
A|--7~--------|
E|-------2~---|

8. FACE THE TRUTH

   Tuning: EADG

  Intro

G|-------------------------------|
D|-------------------------------|
A|-----3\5----------3-2-------3--|
E|--0~-----0~-0~-0~-----3-2-3----|

  Verse
  "You take a look around....."

G|----------|
D|----------| (x4)
A|------3~--|
E|--2-3-----|

  Verse Variation
  "Its been so long........."

G|-------------------------------------------------------|
D|-------------------------------------------------------| (x2)
A|--------3~------------------------3~------------5~-----|
E|--0~----------3~----3~-2-3--0~-----------3~------------|


G|------|
D|------|
A|------|
E|--0~--|

  Verse
  "You take a look around....."

G|----------|
D|----------| (x4)
A|------3~--|
E|--2-3-----|

  Chorus
  "You wait to say goodbye......"

G|---------------------------------------------------------------------------|
D|---------------------------------------------------------------------------|
A|-----------33-333-3----------------------------33-333-3----------55555555--|
E|--00-000-0----------33-333-3-22223333-00-000-0----------33-333-3-----------|

G|----------------------------------------------------------------------|
D|----------------------------------------------------------------------|
A|-----------33-333-3----------------------------33-333-3----------5~---|
E|--00-000-0----------33-333-3-22223333-00-000-0----------33-333-3------|

  Post-Chorus
  "You gotta face the truth........."

G|----------------|
D|--2~------------| (x4)
A|-----2~-3~-5~---|
E|----------------|

  Verse
  "You take a look around....."

G|----------|
D|----------| (x4)
A|------3~--|
E|--2-3-----|

  Chorus
  "You wait to say goodbye......"

G|---------------------------------------------------------------------------|
D|---------------------------------------------------------------------------|
A|-----------33-333-3----------------------------33-333-3----------55555555--|
E|--00-000-0----------33-333-3-22223333-00-000-0----------33-333-3-----------|

G|----------------------------------------------------------------------|
D|----------------------------------------------------------------------|
A|-----------33-333-3----------------------------33-333-3----------5~---|
E|--00-000-0----------33-333-3-22223333-00-000-0----------33-333-3------|

  Post-Chorus Variation

G|------------------------------|
D|--222222----------------------| (x4)
A|---------222222-333333-555555-|
E|------------------------------|

  Bridge

G|---------------------------------------------------------------------------|
D|---------------------------------------------------------------------------|
A|-----------33-333-3----------33-333-3----------33-333-3----------555-55-5--|
E|--00-000-0----------00-000-0----------00-000-0----------333-33-3-----------|

G|---------------------------------------------------------------------------------|
D|---------------------------------------------------------------------------------|
A|-----------33-333-3----------33-333-3----------33-333-3----------55555555555555--|
E|--00-000-0----------00-000-0----------00-000-0----------333-33-3-----------------|


  Chorus
  "You wait to say goodbye......"

G|---------------------------------------------------------------------------|
D|---------------------------------------------------------------------------|
A|-----------33-333-3----------------------------33-333-3----------55555555--|
E|--00-000-0----------33-333-3-22223333-00-000-0----------33-333-3-----------|

G|----------------------------------------------------------------------|
D|----------------------------------------------------------------------|
A|-----------33-333-3----------------------------33-333-3----------5~---|
E|--00-000-0----------33-333-3-22223333-00-000-0----------33-333-3------|

  End

G|------|
D|------|
A|------|
E|--0~--|

9. RAINING IN SEPTEMBER

   Tuning: EADG

G|--------------------------|
D|----------------------3~--|
A|--------------------------|
E|--5~----1~----1\5~--------|

G|------------------------------------------------------|
D|------------------------------------------------------|
A|------------------------------------------------------|
E|--55555555555-1111111111-55555555555-1111111111\1313--|

G|--------------------------------------------------------|
D|--77777777777---10--10--10--10-7777777777-333333333333--|
A|--------------88--88--88--88----------------------------|
E|--------------------------------------------------------|

G|--------------------------------------------------------------|
D|------------------------------7-77-777-77-7-------------------|
A|--------------------------------------------8-88-888-88-8-8x--|
E|--5-55-555-55-5-1-11-111-11-1---------------------------------|

10. ROAD TO RECOVERY

    Tuning: EADG

    I take out this intro of Ttabs.com because is so hard to listening.

  Intro

G|--9-----9-----9-10------10----10-9-----9-----9-10-----10-------|
D|---10-10-10-10----10-10--10-10----10-10-10-10----10-10--10-10--|
A|---------------------------------------------------------------|
E|---------------------------------------------------------------|

G|--22222-------22222--------|
D|--------55555-------55555--|
A|---------------------------|
E|---------------------------|

G|--9-----9-----9-10------10----10-9-----9-----9-10-----10-------|
D|---10-10-10-10----10-10--10-10----10-10-10-10----10-10--10-10--|
A|---------------------------------------------------------------|
E|---------------------------------------------------------------|

G|--22222-------22222-0-2-3-5-3-2-0--|
D|--------55555----------------------|
A|-----------------------------------|
E|-----------------------------------|

  Pre-verse

G|--5-4-5-7-5-5-4-5-7-5--22222-------22222--------|
D|-----------------------------55555-------55555--| (x2)
A|------------------------------------------------|
E|------------------------------------------------|

G|-----------------------|
D|-----------------------|
A|-----------------------|
E|--111111111-333333333--|

  Verse
  "He never thought someone would come along......"

G|---------------------------------------|
D|---------------------------------------|
A|--------------------33333333-----------|
E|--55555555-11111111----------33333333--|

G|--------------------------25-----------|
D|------------------------23-------------|
A|--------------------3333---------------|
E|--55555555-11111111----------33333333--|

  Chorus
  "This road to recovery........"

G|--------------------------------------------------------------------------|
D|--------------------------------------------------------------------------|
A|--55555555-55555555-88888888-88888888-33333333-33333333-------------------|
E|--------------------------------------------------------33333333-33333333-|

G|-----------------------------------------------------------------------------------------------|
D|-----------------------------------------------------------------------------------------------|
A|--55555555-55555555-88888888-88888888-33333333-33333333-101010101010101010-101010101010101010--|
E|-----------------------------------------------------------------------------------------------|

  Post-Chorus

G|----5---------4---------5---------4----|
D|--3---3~----5---5~----7---7~----5---5~-| (x2)
A|---------------------------------------|
E|---------------------------------------|

  Pre-verse

G|-----------------------|
D|-----------------------|
A|----------------58888--|
E|--111111111-3333-------|

  Verse
  "Well he lost control and gave up his heart.."

G|---------------------------------------|
D|---------------------------------------|
A|--------------------33333333-----------|
E|--55555555-11111111----------33333333--|

G|--------------------------25-----------|
D|------------------------23-------------|
A|--------------------3333---------------|
E|--55555555-11111111----------33333333--|

  Chorus
  "This road to recovery........"

G|--------------------------------------------------------------------------|
D|--------------------------------------------------------------------------|
A|--55555555-55555555-88888888-88888888-33333333-33333333-------------------|
E|--------------------------------------------------------33333333-33333333-|

G|-----------------------------------------------------------------------------------------------|
D|-----------------------------------------------------------------------------------------------|
A|--55555555-55555555-88888888-88888888-33333333-33333333-101010101010101010-101010101010101010--|
E|-----------------------------------------------------------------------------------------------|

  Post-Chorus

G|----5---------4---------5---------4----|
D|--3---3~----5---5~----7---7~----5---5~-| (x2)
A|---------------------------------------|
E|---------------------------------------|

G|-------------------------|
D|--3333333333-5555555555--|
A|-------------------------|
E|-------------------------|

  Bridge (Bass Solo).....I take out this solo of Ttabs.com but I'm not sure that it is.

G|---77-557-9--9-7--12-10-9-9-9-7-5-4--|
D|--7--------9-------------------------|
A|-------------------------------------|
E|-------------------------------------|

G|----545---545---545---545----545---545---545--|  In many tabs this part is wrong.
D|--5-----5-----7-----3------3-----5-----5------|
A|----------------------------------------------|
E|----------------------------------------------|

  "Well love is a bitch......"

G|---------------------------|
D|---------------------------|
A|---------------------------|
E|--1111111111-33333333333---|

G|---------------------------------------------------|
D|---------------------------------------------------|
A|--33333333333-22222222222--------------------------|
E|--------------------------55555555555-33333333333--|

G|------------------------------------------------------------------------|
D|-----------------------------------------------------------------12109--|
A|--33333333333-22222222222-1212121212121212121212-1010101010101010-------|
E|------------------------------------------------------------------------|

  "How do I let go of a love....."

G|--------------------------------------------------------------------------|
D|--------------------------------------------------------------------------|
A|--------------------------------------------------------33333333-22222222-|
E|--11111111-33333333-55555555-33333333-11111111-33333333-------------------|

G|------------------------------------------------------------------------------|
D|--------------------77777777-------------------55555555-----------------------|
A|--------------------------------------------------------33333333-22222222\14--|
E|--11111111-33333333----------33333333-11111111--------------------------------|

  "You're still all I see....."

G|--------------------------|
D|--------------------------|
A|---------------------542--|
E|--1111111111-33333333-----|

  Chorus Variation
  "This road to recovery........"

G|---------------------------------------------------------------------|
D|---------------------------------------------------------------------|
A|-----------------------------------------------------------353-------|
E|--55555555-33333333-11111111-33333333-55555555-33333333-111---32-3~--|

G|-------------------------------------------------------------------------------------------|
D|-------------------------------------------------------------------------------------------|
A|--------------------------------------1212121212121212-1010101010101010-88888888------32---|
E|--55555555-33333333-11111111-33333333--------------------------------------------33333--3--|

  End
  "Taken all I have......"

G|------------------------|
D|------------------------|
A|------------------------|
E|--5~-------3~-------1~--|

11. STOP WHINING

    Tuning: EADG

  Intro

G|----------------------------------------------------|
D|--10-10-10-10-10-10-10-10-10-10-10-10-10-10-10-10---| (x2)
A|--8--8--8--8--8--8--8--8--0--0--0--0--0--0--0--0----|
E|----------------------------------------------------|

G|--------------------------------------------------------------|
D|------------------------------------------------121012141210--|
A|-----------------------------------121212121212---------------|
E|--1111111111-5555555555-1111111111----------------------------|

G|---------------------------------------------------------------------------------|
D|----10--10--10--10--10--10--10--10--10--10--10--10--101010-999-77----------------|
A|--88--88--88--88--00--00--00--00--88--88--88--88-----------------101010-888-777--|
E|---------------------------------------------------------------------------------|

  Verse
  "So close to no one that......"

G|------------------------------------------------------------------------------------------|
D|------------------------------------------------------------------------------------------|
A|--888-88-888------------------------------------------------------------------------------|
E|-------------888-88-888-555-555-55-555-55-1010-101010-1010-88-888-88-55-555-55-33-333-33--|

G|--------------------------------------------------------------------------------------------------------|
D|--------------------------------------------------------------------------------------------------------|
A|--888-88-888---------------------------------------------------------12121212-1212-12-10101010-1010-10--|
E|-------------888-88-888-555-555-55-555-55-1010-101010-1010-88-888-88------------------------------------|

  Chorus
  "So close your eyes...."

G|------------------------------------------------------------------------------------------------------------|

(x2)
A|--888-888-88-777-55------------101010-888-77------------------------121212-121212-1212-101010-101010-1010---|
E|--------------------888-888-88---------------101010-101010-1010-8-7-----------------------------------------|

  Post-chorus
  "Dead....."

G|-------------------------|
D|-------------------------|
A|--55-5h7-77h88-1010h11~--|
E|-------------------------|

  Intro

G|----------------------------------------------------------------|
D|-----------------------------------101010-999-77----------------|
A|------------------------8888888888--------------101010-888-777--|
E|--1111111111-5555555555-----------------------------------------|

  Verse
  "Always feel discomfort........"

G|------------------------------------------------------------------------------------------|
D|------------------------------------------------------------------------------------------|
A|--888-88-888------------------------------------------------------------------------------|
E|-------------888-88-888-555-555-55-555-55-1010-101010-1010-88-888-88-55-555-55-33-333-33--|

G|--------------------------------------------------------------------------------------------------------|
D|--------------------------------------------------------------------------------------------------------|
A|--888-88-888---------------------------------------------------------12121212-1212-12-10101010-1010-10--|
E|-------------888-88-888-555-555-55-555-55-1010-101010-1010-88-888-88------------------------------------|

  Chorus
  "So close your eyes...."

G|------------------------------------------------------------------------------------------------------------|

(x2)
A|--888-888-88-777-55------------101010-888-77------------------------121212-121212-1212-101010-101010-1010---|
E|--------------------888-888-88---------------101010-101010-1010-8-7-----------------------------------------|

  Bridge
  "If you really did........"

G|------------------------------------------|
D|------------------------------------------|
A|--5555-555-5555-8888-888-10101010-101010--|
E|------------------------------------------|

G|---------------------------------------|
D|-------------------------------3--5\7--|
A|-----------------------------33-33-----|
E|--55555555-33333333-11111111-----------|

  "It's just a cop out you can't pull through......"

G|------------------------------------------|
D|------------------------------------------|
A|--5555-555-5555-8888-888-10101010-101010--|
E|------------------------------------------|

G|------------------------------------------|
D|------------------------------------------|
A|-----------------------------444444-4-4x--|
E|--55555555-33333333-11111111--------------|

  "You analyze it......"

G|------------------|
D|------------------|
A|---------0\77-7~--|
E|--55555-----------|

G|------------------|
D|----------88------|
A|--8888888----88~--|
E|------------------|

  "You don't know what to think....."

G|-------------------|
D|-----------579-10--|
A|--------578--------|
E|--55555------------|

G|------------------|
D|----------88------|
A|--8888888----88~--|
E|------------------|

  "Just keep on passing by......"

G|-----------------------|
D|-----------------------|
A|-------3333------33----|
E|--5555------1111----3--|

  "Leave me alone...."

G|-----------------------------------------------------|
D|-----------------------------------------------------|
A|------------3-3-3-3-3-5-5-5-5-5-7-7-7-7-7x---7\12/8--|
E|--5-5-5-5-5------------------------------------------|

  Chorus
  "So close your eyes...."

G|------------------------------------------------------------------------------------------------------------|

(x2)
A|--888-888-88-777-55------------101010-888-77------------------------121212-121212-1212-101010-101010-1010---|
E|--------------------888-888-88---------------101010-101010-1010-8-7-----------------------------------------|

  End
  "Dead....."

G|-------------------------|
D|-------------------------|
A|--55-5h7-77h88-1010h11~--|
E|-------------------------|

12. SELFISHNESS

   Tuning: EADG

  Intro

G|-----------------|
D|-----------------| (x3)
A|--6~--4~------2~-|
E|----------2~-----|

G|-----------------|
D|--8~--6~--4~-----|
A|--------------2~-|
E|-----------------|

G|---------------------------------------|
D|---------------------------------------| (x2)
A|--22-222-2-44-444-4-66-666-6-44-444-4--|
E|---------------------------------------|

  Verse
  "Harden up to everyone......"

G|----------------------------------------------------------------------|
D|----------------------------------------------------------------------|
A|--1111111111111111-2222222222222222-----------------------------------|
E|------------------------------------2222222222222222-1111111111111111-|

G|----------------------------------------------------------------------|
D|----------------------------------------------------------------------|
A|--1111111111111111-2222222222222222------------------22222-2-4-2-3-1--|
E|------------------------------------2222222211111111------------------|

  Pre-Chorus
  "Your selfishness, is wearing thin......."

G|-------------------------------|
D|-------------------------------| (x2)
A|--222222-444444-666666-444444--|
E|-------------------------------|

G|-------------------------------|
D|----------------111111---------|
A|--222222-444444--------444444--|
E|-------------------------------|

G|-------------------------------|
D|-------------------------------|
A|--222222-444444-666666-444444--|
E|-------------------------------|

  Chorus
  "Alone and strong......"

G|---------------------------------------------------------------|
D|---------------------------------------------------------------| (x2)
A|--999999-888888-111111-666-66-444-44--2222222222-444444444444--|
E|---------------------------------------------------------------|

  Outro

G|---------------------------------------|
D|---------------------------------------| (x2)
A|--22-222-2-44-444-4-66-666-6-44-444-4--|
E|---------------------------------------|

  Pre-Verse
  "Turning anger to your friends....."

G|---------------------------------------|
D|---------------------------------------| (x2)
A|--22-222-2-44-444-4-66-666-6-44-444-4--|
E|---------------------------------------|

  Verse
  "Harden up to everyone......"

G|----------------------------------------------------------------------|
D|----------------------------------------------------------------------|
A|--1111111111111111-2222222222222222-----------------------------------|
E|------------------------------------2222222222222222-1111111111111111-|

G|----------------------------------------------------------------------|
D|----------------------------------------------------------------------|
A|--1111111111111111-2222222222222222------------------22222-2-4-2-3-1--|
E|------------------------------------2222222211111111------------------|

  Pre-Chorus
  "Your selfishness, is wearing thin......."

G|-------------------------------|
D|-------------------------------| (x2)
A|--222222-444444-666666-444444--|
E|-------------------------------|

G|-------------------------------|
D|----------------111111---------|
A|--222222-444444--------444444--|
E|-------------------------------|

G|-------------------------------|
D|-------------------------------|
A|--222222-444444-666666-4444x---|
E|-------------------------------|

  Chorus
  "Alone and strong......"

G|---------------------------------------------------------------|
D|---------------------------------------------------------------| (x2)
A|--999999-888888-111111-666-66-444-44--2222222222-444444444444--|
E|---------------------------------------------------------------|

  Bridge
  "In your mind...."

G|------------------------------------------|
D|---------------------------------11-------|
A|--22x-222x-666x-444x-222x-222x-9---998-9--|
E|------------------------------------------|

G|------------------------------------------|
D|---------------------------------11-------|
A|--22x-222x-666x-444x-222x-222x-9---998-9--|
E|------------------------------------------|

G|----------------------------------|
D|----------------------------------|
A|--2~---4-2~---4-2~---4-2~---4-2~--|
E|----------------------------------|

  Chorus Variation
  "Why don't you......"

G|--------------------------------------|
D|--------------------------------------| (x3)
A|--6-66-6~--4-44-4~-----------2-22-2~--|
E|--------------------2-22-2~-----------|

G|--------------------------------------|
D|--8-88-8~--6-66-6~--4-44-4~-----------|
A|-----------------------------2-22-2~--|
E|--------------------------------------|

  Bridge Final

G|------------------------------------------|
D|---------------------------------11-------|
A|--22x-222x-666x-444x-222x-222x-9---998-9--|
E|------------------------------------------|

G|------------------------------------------|
D|---------------------------------11-------|
A|--22x-222x-666x-444x-222x-222x-9---998-9--|
E|------------------------------------------|

  End

G|------|
D|------|
A|--9~--|
E|------|

13. TEARS

    Tuning: DADG

  Intro

G|----------------------|
D|----------------------| (x2)
A|----------------------|
D|--5~---7~-8~-1~---3~--|

  Chorus

G|-----------------------|
D|-----------------------| (x3)
A|-----------------------|
D|--5x-55x5-5-1-0-11111--|

G|--------------------|
D|--------------------|
A|--------------------|
D|--5x-55x5-5-1-0-1~--|

  Verse
  "I sit and hear you sleep....."

G|----------------------|
D|----------------------|
A|----------------------|
D|--5~---7~-8~-1~---3~--|

G|----------------------|
D|----------------------|
A|-------------6~---8~--|
D|--5~---7~-8~----------|

G|---------------------------------------|
D|---------------------------------------| (x2)
A|--------------------66666666-88888888--|
D|--55555555-77778888--------------------|

  Chorus
  "Tears are feelings we can't say......"

G|-----------------------|
D|-----------------------| (x3)
A|-----------------------|
D|--5x-55x5-5-1-0-11111--|

G|--------------------|
D|--------------------|
A|--------------------|
D|--5x-55x5-5-1-0-1~--|

  Interlude.....(I'm not sure about this interlude)
  "The pouring rain......"

G|------------------------------|
D|---------------------8-----7--| (x2)
A|--6~--8~--5~--6~--6~-6--8~-8--|
D|------------------------------|

  Verse
  "I sit and hear you sleep....."

G|----------------------|
D|----------------------|
A|----------------------|
D|--5~---7~-8~-1~---3~--|

G|----------------------|
D|----------------------|
A|-------------6~---8~--|
D|--5~---7~-8~----------|

  Pre-Chorus
  "And I tell you....."

G|-----------------------------------|
D|-----------------------------------| (x2)
A|-----------------------------------|
D|--555555x-77778888-111111x-333333--|

  Chorus
  "Tears are feelings we can't say......"

G|-----------------------|
D|-----------------------| (x3)
A|-----------------------|
D|--5x-55x5-5-1-0-11111--|

G|--------------------|
D|--------------------|
A|--------------------|
D|--5x-55x5-5-1-0-1~--|

  Outro
  "It's the light.."

G|------------------|
D|------------------| (x2)
A|------------------|
D|--000-111-333333--|

G|------------------|
D|------------------|
A|--555-666-888888--|
D|------------------|

G|--------------------|
D|--------------------|
A|--------------------|
D|--000-111-3333h5p3--|

G|-------------------------------|
D|-------------------------------| (x3)
A|-------------------------------|
D|--555555-333333-555555-888777--|

G|-------------------------------|
D|--555555-333333-555555-888777--|
A|-------------------------------|
D|-------------------------------|

  Chorus
  "Tears are feelings we can't say......"

G|-----------------------|
D|-----------------------| (x3)
A|-----------------------|
D|--5x-55x5-5-1-0-11111--|

G|--------------------|
D|--------------------|
A|--------------------|
D|--5x-55x5-5-1-0-1~--|

14. SAVE THE WORLD

    Tuning: EADG

  Intro

G|------------------|
D|----------222-1---|
A|--4x-4-2x------2--|
E|------------------|

G|-----------------------------------|
D|---------------------------222-1---|
A|--4444444444444-2---------------2--|
E|------------------55555555---------|

G|----------------4----------------------|
D|-----------21242-----------222---------|
A|--44444444-------------------------22--|
E|------------------55555555-----55------|

G|--------------------------------|
D|--------------------------9--9--|
A|--4444444444444-6-77777976-77---|
E|--------------------------------|

G|-----------------------------------|
D|-------------21--------------------|
A|--4-00-2-4-0----2--4-00-2----------|
E|--------------------------00-0-44--|

G|----------------4-------------------|
D|-------------21----------22-2-11-1--|
A|--4-00-2-4-0------4-00-2------------|
E|------------------------------------|

  Verse
  "You pull me by the arm......"

G|---------------------------------------------------------------------------|
D|---------------------------------------------------------------------------| (x2)
A|-------------------2222222222222222-44444444-22222222----------------------|
E|--5555555555555555------------------------------------5555555555555555--4--|

G|-------------------------------------|
D|-------------------------------------|
A|-------------------------------------|
E|--5555555555555555-7777777777777777--|

  Chorus
  "Lets save the world......"

G|------------------------------------------------------------------------|
D|------------------------------------------------------------------------| (x2)
A|--7777777777777777------------------4444444444444444--------------------|
E|-------------------5555555555555555------------------55555555-77777777--|

  Post Chorus

G|--------------|
D|--------21----|
A|--44-00----2--|
E|--------------|

  Intro

G|--------------------------|
D|-----------------222-1----|
A|--4x-4x-4x-4-2x--------2--|
E|--------------------------|

G|-----------------------------------|
D|---------------------------222-1---|
A|--4444444444444-2---------------2--|
E|------------------55555555---------|

  Verse
  "So spread the word......."

G|---------------------------------------------------------------------------|
D|---------------------------------------------------------------------------|
A|--44444444-------------------22222222-44444444-77777777--------------------|
E|-----------55555555-44444444----------------------------55555555-77777777--|

G|----------------------------------44------------------------------------|
D|------------------------------------------------9--9--------------------|
A|--44444444-------------------2222----44444444-77-77---------------------|
E|-----------55555555-44444444-------------------------55555555-77777777--|

  Verse
  "You pull me by the arm......"

G|---------------------------------------------------------------------------|
D|---------------------------------------------------------------------------| (x2)
A|-------------------2222222222222222-44444444-22222222----------------------|
E|--5555555555555555------------------------------------5555555555555555--4--|

G|-------------------------------------|
D|-------------------------------------|
A|-------------------------------------|
E|--5555555555555555-7777777777777777--|

  Chorus
  "Lets save the world......"

G|------------------------------------------------------------------------|
D|------------------------------------------------------------------------| (x2)
A|--7777777777777777------------------4444444444444444--------------------|
E|-------------------5555555555555555------------------55555555-77777777--|

  Post-Chorus

G|-----------------|
D|----------2-1----|
A|--4-2-0-2-----2--|
E|-----------------|

  Bridge

G|--------------------------------------------------------|
D|--------------------------------------------------------| (x2)
A|--444-444-4-44--------------222-222-2-22--------222-22--|
E|---------------000-000-0-00--------------555-55---------|

G|--------------------------------------------------------|
D|--------------------------------------------------------|
A|--444-444-4-44------7777777-222-222-2-22--------222-22--|
E|---------------00-0----------------------555-55---------|

G|--------------------------------------------------------|
D|--------------------------------------------------------|
A|--444-444-4-44--------------222-222-2-22--------222-22--|
E|---------------000-000-0-00--------------555-55---------|

G|------|
D|------|
A|------|
E|--5~--|

G|----------------|
D|--6-6----9-7-6--|
A|-----77---------|
E|----------------|

  Chorus
  "Lets save the world......"

G|------------------------------------------------------------------------|
D|------------------------------------------------------------------------| (x2)
A|--7777777777777777------------------4444444444444444--------------------|
E|-------------------5555555555555555------------------55555555-77777777--|

  Outro

G|----------------------------------------------------------------------------|
D|----------------------------------------------------------------------------|
A|--777-7777-77-77-7------------------444-4444-44-44-4------------------------|
E|-------------------555-5555-55-55-5------------------555-55-555-777-77-777--|

G|---------------------------------------------------6------------------------|
D|----------------------------------------------------------------------------|
A|--777-7777-77-77-7--------------76--444-4444-44-44---------------------76---|
E|-------------------555-5555-55-5--5------------------555-55-555-777-77---7--|

  End

G|------|
D|------|
A|--7~--|
E|------|

15. THE WRATH

    Tuning: DADG

  Intro

G|-------------------------------------------------------------|
D|-------------------------------------------------------------| (x2)
A|-------------------------------------------------------------|
D|--0-0-0-0-0-0-0-0-0-0-11111111-0-0-0-0-0-0-0-0-0-0-11111111--|

G|----------------|
D|----55----------| (x3)  Play the same at guitar
A|--22--66558855--|
D|----------------|

G|--------------------------------------------|
D|--------------------------------------------|
A|--------------------------------------------|
D|--1111-3333-2222-5555-3333-7777-8888-55-44--|

G|----------------------------------------------|
D|----------------------------------------------|
A|----------------------------------------------|
D|--5555-6666-3333-1111-55-44-77-99-1096734215--|

G|--------------------------------|
D|--------------------------------| (x2)
A|--------------------------------|
D|--1111-0-1-11-22-111-00-1-11-2--|

G|-------------------------|
D|-------------------------|
A|-------------------------|
D|--11110-1-11-00-22-11-1x-|

G|-------------------------------------------|
D|-------------------------------------------| (x2)
A|-----------333-33-3-2222-22-2-2-2222-22-2--|
D|--222-22-2---------------------------------|

G|-----------------------------------------------|
D|------------------------------------11912------| (x2)
A|-----------333-33-3-2222-22-2-2-2\14-----1014--|
D|--222-22-2-------------------------------------|

G|------------------------------------------------|
D|------------------------------------------------|
A|-----------333-33-3-2222-22-2-2-2\10------1214--|
D|--222-22-2--------------------------101210------|

G|-------------------------------------------|
D|-------------------------------------------|       Play until the song fades
A|-----------333-33-3-2222-22-2-2-2222-22-2--|
D|--222-22-2---------------------------------|

Legend Tab

| /  slide Up
| \  slide Down
| h  Hammer-On
| p  Pull-Off
| ~  vibrato
| x  Mute Note


This album is excellent and play is so fun and you could be best in the bass
if you could play all songs. I wait your comments about this album tab
and enyoining with this tabs.
Suggest correction
Creating personal tab
Creating personal tab
You can edit any tab online and save it as your Personal.

You can edit, replace or remove any tab part or add personal notes – all changes will be seen only by you.

Personal tabs can be accessed anytime from any device, even offline.
Learn more »
Give kudos to tab author, rate the tab!
1 2 3 4 5
comments
print report bad tab
1 comment total.
0 reply
RaiLeff 12,922 Apr 26, 2007 04:10 PM

I rate you with a 3 for a lot of reasons:

- Its not much difference from my tab
- Its not your work 100% since you used someone elses
- Many tabs such as: One Slowdance, She Cries, Dipshit, Face The Truth,
Road To Recovery (solo) and Save The World, are kinda wrong in parts
because you used the same notes but on different strings, well you get it :D

And thats all, keep trying man :D

guest
You may want to rate the tab now too:
select rating
Wanna post a correction for this tab? Suggest correction