Oops, an error
Loading. Please wait.

Pirate bass

version 3
version 3

Whole song

Interactive

by Rufio
416 views 3 this week
1 commentread comment
1 2 3 4 5
2 more votes to show rating
add to favorites
×
Save as Personal and add changes to this tab that will be seen only by you. Learn more ›
×
You can save this tab as Personal to edit and correct it or add notes. All changes will be seen only by you. Learn more »
launch autoscroll
font size
0
reset
guitar tuner
edit
Autoscroll
slow
fast
+/-
esc
set tempo
stop
Author
Difficulty
 R U F I O - P I R A T E
 -----------------------



10. PIRATE
   
   Tuning: EADG

  Intro

G|-------------------------------------------------------------------------|
D|-------------------------------------------------------------------------| (x2)
A|--2-2-5-5-0-0-5-5------5-5-0-0-5p4-0----2-2-5-5-0-0-5-5-----5-5-0-0-5-5--|
E|-------------------3-3----------------------------------3-3--------------|

G|--------------------|
D|--------------------|
A|--------------------|
E|--3~---55555555\12--|

  Verse
  "Let's kill the playlist...."

G|------------------------------------------------------------|
D|------------------------------------------------------------| (x2)
A|--2-0-2-0-2-0-2-0---5---------2-0-2-0-2-0-2-0--55555--------|
E|----------------------3-5-2--------------------------55555--|

  Pre-chorus
  "Will someone tell my why we even listen?...."

G|----------------------------------------|
D|----------------------------------------| (x2)
A|---------------200005p4000-200005p4000--|
E|--333xx333xx33--------------------------| 

G|-----------------------|
D|-----------------------|
A|-----------------------|
E|--333333333-555555555--|

  Chorus
  "They've got you by their strings again tonight...." 

G|-------------------------------------------------------------------------|
D|-------------------------------------------------------------------------| (x2)
A|--2-2-5-5-0-0-5-5------5-5-0-0-5p4-0----2-2-5-5-0-0-5-5-----5-5-0-0-5-5--|
E|-------------------3-3----------------------------------3-3--------------|

  Bridge

G|------------------------------|
D|------------------------------|
A|--2x-2222x-------2x-----5~----|
E|-----------3~-------------5~--|

G|-----------------------------------|
D|-----------------------------------|
A|--2xxxxx-2222xx------2xxxxx--5~----|
E|----------------3~-------------5~--|

  Verse
  "Follow new trends......."

G|------------------------------------------------------------|
D|------------------------------------------------------------| (x2)
A|--2-0-2-0-2-0-2-0---5---------2-0-2-0-2-0-2-0--55555--------|
E|----------------------3-5-2--------------------------55555--|

  Pre-chorus
  "Will someone tell my why we even listen?...."

G|----------------------------------------|
D|----------------------------------------| (x2)
A|---------------200005p4000-200005p4000--|
E|--333xx333xx33--------------------------| 

G|-----------------------|
D|-----------------------|
A|-----------------------|
E|--333333333-555555555--|

  Chorus
  "They've got you by their strings again tonight...." 

G|-------------------------------------------------------------------------|
D|-------------------------------------------------------------------------| (x2)
A|--2-2-5-5-0-0-5-5------5-5-0-0-5p4-0----2-2-5-5-0-0-5-5-----5-5-0-0-5-5--|
E|-------------------3-3----------------------------------3-3--------------|

  Post-chorus

G|----------------------|
D|----------------------|
A|--2-2-2---------------|
E|--------5-5-5-3-3-3x--|

  Interlude (Bass Solo)

G|-----------------------------------------------------------------------------------------|
D|-----------------------------------------------------------------------------------------|
A|--2-2-5-5------5p4p---------5-5------5p4p----2-2-5-5------5p4p-----------5-5------5p4p---|
E|----------5-5-5----5----3-3-----5-5-5----5-----------5-5-5-----5-----3-3-----5-5-5----5--|

G|-----------------------------------------------------------------------------------------|
D|-----------------------------------------------------------------------------------------|
A|--2-2-5-5------5p4p---------5-5------5p4p----2-2-5-5------5p4p-----------5-5------5p4p---|
E|----------5-5-5----5----3-3-----5-5-5----5-----------5-5-5-----5-----3-3-----5-5-5----5--|

G|-------------------------------------------------------------------------------------------|
D|-------------------------------------------------------------------------------------------|
A|--2-2x-5-5------5p4p---------5-5------5p4p----2-2x-5-5------5p4p-----------5-5------5p4p---|
E|-----------5-5-5----5----3-3-----5-5-5----5------------5-5-5-----5-----3-3-----5-5-5----5--|

G|---------------------------------------------------------------------------------------------|
D|---------------------------------------------------------------------------------------------|
A|--2-2x-5-5------5p4p----------5-5------5p4p----2-2x-5-5------5p4p------------5-5------5p4p---|
E|-----------5-5-5----5----3-3x-----5-5-5----5------------5-5-5-----5-----3-3x-----5-5-5----5--|

  Pre-chorus
  "Will someone tell my why we even listen?...."

G|----------------------------------------|
D|----------------------------------------| 
A|---------------200005p4000-200005p4000--|
E|--333xx333xx33--------------------------| 

G|-----------------------|
D|-----------------------|
A|-----------------------|
E|--333333333-555555555--|

  Chorus
  "They've got you by their strings again tonight...." 

G|-------------------------------------------------------------------------|
D|-------------------------------------------------------------------------| (x4)
A|--2-2-5-5-0-0-5-5------5-5-0-0-5p4-0----2-2-5-5-0-0-5-5-----5-5-0-0-5-5--|
E|-------------------3-3----------------------------------3-3--------------|

  End

G|--------------------|
D|-------------454----|
A|--2-2-2-2-245---2~--|
E|--------------------|






Legend Tab

| /  slide Up
| \  slide Down
| h  Hammer-On
| p  Pull-Off
| ~  vibrato
| x  Mute Note

Oscar Olarte/rufiopunkrock
If you have any questions,comments.....oscardanielof@hotmail.com
www.myspace.com/bassnautilius

            
            
Suggest correction
Creating personal tab
Creating personal tab
You can edit any tab online and save it as your Personal.

You can edit, replace or remove any tab part or add personal notes – all changes will be seen only by you.

Personal tabs can be accessed anytime from any device, even offline.
Learn more »
Give kudos to tab author, rate the tab!
1 2 3 4 5
comments
print report bad tab
1 comment total.
0 reply
Sidewalks324 10 May 31, 2007 08:57 AM

Very good tab, I played through most of it and saw no mistakes. keep up the good tabs, keep Rufio alive.

guest
You may want to rate the tab now too:
select rating
Wanna post a correction for this tab? Suggest correction