Oops, an error
Loading. Please wait.

Rufio Bass Tab

759 views 1 this week
no commentswrite comment
1 2 3 4 5
please rate
add to favorites
launch autoscroll
font size
0
reset
guitar tuner
Tab Pro tools
  • play this tab
  • loop segment
  • change instrument
  • show fretboard
  • metronome
×
Best way to learn
"Rufio"
Autoscroll
slow
fast
+/-
esc
set tempo
stop
Contributor
Difficulty
intermediate
 R U F I O - R U F I O  E P
 --------------------------
 1. Why Wait?
 2. Set It Off
 3. Don't Hate Me


 Oscar Olarte/rufiopunkrock
 If you have any questions,comments.....oscardanielof@hotmail.com
 www.myspace.com/bassnautilius





1. WHY WAIT?
   
   Tuning: EADG

  Intro

G|-------------------------------------|
D|-------------------------------------| (x2)
A|-------------------------------------|
E|--444-44-666-66777-77-000-00-222-22--|

  Verse
  "Growing old, and living for...."
 
G|------------------------------------|
D|------------------------------------| 
A|------------------------------------|
E|--44444444444444-00000000000000000--|

G|--------------------------------44--|
D|------------------------------------| 
A|---------------------------22222----|
E|--44444444444444-0000000000---------|

G|------------------------------------|
D|------------------------------------| 
A|------------------------------------|
E|--44444444444444-00000000000000000--|

G|-----------------------------|
D|-----------------------------| 
A|-----------------------------|
E|--44444444444444-0000000000--|

  Pre-chorus
  "Thinking love is gone, It's gone....."

G|---------------------------|
D|---------------------------| 
A|--11-1-1-1-2-2-2-2-2-2-----|
E|-----------------------0~--| 

  Chorus
  "Why wait for you to come home....." 

G|-------------------------------------------------------------|
D|-------------------------------------------------------------| 
A|--2222-22-222-22----------------2222-22-222-22--77777-99999--|
E|-----------------0000-00-000-00------------------------------|

G|------------------------------11--------|
D|---------------------------9------------| 
A|------------------------99---9---9p8h9--|
E|--4444444-00000000-4444-----------------|

G|----------|
D|----------| 
A|----------|
E|--0-0-2~--| 

  Intro

G|-------------------------------------|
D|-------------------------------------| (x2)
A|-------------------------------------|
E|--444-44-666-66777-77-000-00-222-22--|


  Verse
  "Growing old, and living for...."
 
G|-----------------------------96-----|
D|---------------------------97-------| 
A|-----------------7777777777----777--|
E|--44444444444444--------------------|

G|--------------------------------44--|
D|------------------------------24----| 
A|---------------------------222------|
E|--44444444444444-0000000000---------|

G|-----------------------------------------|
D|-----------------------------------------| 
A|-----------------777777777-6-5-3-1-7777--|
E|--44444444444444-------------------------|

G|-----------------------------|
D|-----------------------------| 
A|-----------------7777777777--|
E|--44444444444444-------------|

  Pre-chorus
  "Thinking love is gone, It's gone....."

G|---------------------------|
D|---------------------------| 
A|--11-1-1-1-2-2-2-2-2-2-----|
E|-----------------------0~--| 

  
  Chorus
  "Why wait for you to come home....." 

G|-------------------------------------------------------------|
D|-------------------------------------------------------------| 
A|--2222-22-222-22----------------2222-22-222-22--77777-99999--|
E|-----------------0000-00-000-00------------------------------|

G|------------------------------11--------|
D|---------------------------9------------| 
A|------------------------99---9---9p8h9--|
E|--4444444-00000000-4444-----------------|

G|----------|
D|----------| 
A|----------|
E|--0-0-2~--| 

  Bridge

G|------------------------------------|
D|------------------------------------| (x2)
A|------------------------------------|
E|--00-0--00-0-00-0--22-2--22-2-44-4--|

G|------------------------------------|
D|------------------------------66-6--| (x2)
A|--77-7--77-7-77-7--99-9--99-9-------|
E|------------------------------------|

G|--------------------------|
D|--------------------------| 
A|--------------------------|
E|--00-0x--00-0-00-0--00-0--|


  Chorus
  "Why wait for you to come home....." 

G|-------------------------------------------------------------|
D|-------------------------------------------------------------| 
A|--2222-22-222-22----------------2222-22-222-22--77777-99999--|
E|-----------------0000-00-000-00------------------------------|

G|------------------------------11--------|
D|---------------------------9------------| 
A|------------------------99---9---9p8h9--|
E|--4444444-00000000-4444-----------------|

G|----------|
D|----------| 
A|----------|
E|--0-0-2~--| 

  Chorus Variation
  "Why wait for you to come home....." 

G|------------------------------------------------------------|
D|------------------------------------------------------------| 
A|--22222222222222-77777777777777-22222222222222-77777-99999--|
E|------------------------------------------------------------|

G|------------------------------11--------|
D|---------------------------9------------| 
A|------------------------99---9---9p8h9--|
E|--4444444-00000000-4444-----------------|

G|----------|
D|----------| 
A|----------|
E|--0-0-2~--| 

  Post-Chorus

G|-------------------------------------|
D|-------------------------------------| (x4)
A|-------------------------------------|
E|--444-44-666-66777-77-000-00-222-22--|

  End

G|-----------|
D|-----------| 
A|-----------|
E|--444-44x--|






2. SET IT OFF
   
   Tuning: EADG

  Intro

G|-------------------------------------------------------------|
D|-------------------------------------------------------------|
A|---------------55xxx5xx5xx5---------------5555555577777777---|
E|--22xxx2xx2xx2--------------22xxx2xx2xx2---------------------|

G|------------------------------------------------------------------|
D|------------------------------------------------------------------|
A|---------------55xxx5xx5xx5---------------55555555----------------|
E|--22xxx2xx2xx2--------------22xxx2xx2xx2-----------7-4-5-4-2-0-2--|

  Verse
  "One day they set it off....."

G|----------------------------------------------|
D|----------------------------------------------| (x2)
A|----------------------------------------------|
E|--2222222224444444455555555-00-0000-000-0-00--|

  Pre-chorus
  "So help us fight this war......" 

G|--------------------------------|
D|--------------------------------| 
A|--4444444555555599999997777777--|
E|--------------------------------|

G|---------------------------------------------|
D|---------------------11-12-11-9-11-12--------| 
A|--44444445555555-99-9--9--------------11h12--|
E|---------------------------------------------|

G|----------6--------7--------11--------9--|
D|-----------------------------------------| 
A|--444-44-4-555-55-5-999-99-9--777-77-7---|
E|-----------------------------------------|

G|---------------------|
D|---------------------| 
A|--55555557777777\12--|
E|---------------------|

  Chorus
  "Things never change........"

G|---------------------------------------|
D|---------------------------------------| 
A|-----------55555555----------77777777--|
E|--22222222----------55555555-----------|

G|---------------------------------------|
D|---------------------------------97----| 
A|-----------55555555----------7777--75--|
E|--22222222----------55555555-----------|

  Intro

G|-------------------------------------------------------------|
D|-------------------------------------------------------------|
A|---------------55xxx5xx5xx5---------------5555555577777777---|
E|--22xxx2xx2xx2--------------22xxx2xx2xx2---------------------|

  Verse Variation
  "We're starting a different life....."
 
G|--------------------------------------------------------|
D|--------------------------------------------------------| 
A|-------------------------------777775-7-5-3-777775h7p5--|
E|--222-22x--444-44x-12/5-555555--------------------------|

G|-----------------------------------------------------|
D|-----------------------------------------------------| 
A|-----------------------------------------------------|
E|--2222222224444444455555555-12121212-1212-121212-12--|


  Pre-chorus
  "So help us fight this war......" 

G|--------------------------------|
D|--------------------------------| 
A|--4444444555555599999997777777--|
E|--------------------------------|

G|---------------------------------------------|
D|---------------------11-12-11-9-11-12--------| 
A|--44444445555555-99-9--9--------------11h12--|
E|---------------------------------------------|

G|----------6--------7--------11--------9--|
D|-----------------------------------------| 
A|--444-44-4-555-55-5-999-99-9--777-77-7---|
E|-----------------------------------------|

G|---------------------|
D|---------------------| 
A|--55555557777777\12--|
E|---------------------|

  Chorus
  "Things never change........"

G|---------------------------------------|
D|---------------------------------------| 
A|-----------55555555----------77777777--|
E|--22222222----------55555555-----------|

G|---------------------------------------|
D|---------------------------------97----| 
A|-----------55555555----------7777--75--|
E|--22222222----------55555555-----------|

  Bridge
  "What will we do when all is gone?........"

G|------------------|
D|------------------| (x2)
A|--5~----------7~--|
E|----------5~------|

G|--------------------|
D|--------------------| (x2)
A|--5555555-----7777--|
E|----------5555------|

G|--------------------|
D|--------------------| 
A|--5555555-----7777--|
E|----------5555------|

G|---------------------|
D|---------------------| 
A|--55555557777777\12--|
E|---------------------|

  Chorus
  "Things never change........"

G|-----------|
D|-----------| 
A|-----------|
E|--222-22x--|

G|----------------------------------|
D|----------------------------------| 
A|--7-5-4-555555----------77777777--|
E|---------------55555555-----------|

G|---------------------------------------|
D|---------------------------------97----| 
A|-----------55555555----------7777--75--|
E|--22222222----------55555555-----------|  

  End

G|-----------------------------|
D|-----------------------------|
A|-----------------------------|
E|--2xx222-2-44-5xxx-5-0-0-2x--|





3. DON'T HATE ME
   
   Tuning: EADG

  Intro

G|-----------|
D|-----------|
A|----4---4--|
E|--2---2----|

G|-----------------------------------------------|
D|-----------------------------------------------|
A|--------------------------2222-22-222----------|
E|--4444-44-444-0000-00-000-------------2222-22--|

G|----------|
D|----------|
A|----------|
E|--467646--|

G|------------------------------------------------|
D|------------------------------------------------|
A|--------------------------2222-22-222-----------|
E|--4444-44-444-0000-00-000-------------2222-22x--|

  Verse
  "I remember when......"

G|--------------------------|
D|--------------------------|
A|------------2~---2~-------|
E|--4~---0~-------------2~--|

G|---------------------|
D|---------------------|
A|------------2~-------|
E|--4~---0~--------2~--|

  Verse Variation
  "All I want, it's to be just friends....."

G|-------------------------------------------|
D|------------------------4------------------|
A|-----------------------2---------2222------|
E|--000000000-222222222-4--444444------2222--|

G|---------------------------------3---------|
D|----------------------------------4--------|
A|--777777777-999999999-----------2--2-------|
E|----------------------444444444------2222--|

G|---------------------|
D|---------------------|
A|--777-77-7-999-99-9--|
E|---------------------|

  Verse
  "Honesty is all......."

G|-------------------------------------------|
D|------2------------------------------------| (x2)
A|-----2-2----------------222222222----------|
E|--444---444-000000000-----------222222222--|

G|-----------------------|
D|-----------------------|
A|------------22222x-----|
E|--44444x-00--------22--|

G|----------------------------|
D|----------------------------|
A|------------22222x---4---4--|
E|--44444x-00--------2---2----|

G|-----------------------|
D|-----------------------|
A|------------22222x-----|
E|--44444x-00--------22--|

G|----------------------------|
D|----------------------------|
A|------------22222x---4---4--|
E|--44444x-00--------2---2----|

  Verse Variation
  "All I want, it's to be just friends....."

G|-------------------------------------------|
D|--------------------------4----------------|
A|---------------------------2-----2222------|
E|--000000000-222222222-4444--444------2222--|

G|--------------------------------------------|
D|---------------------------------4-4--------|
A|--777777777-999999999-----------2-2-2-------|
E|----------------------444444444-------2222--|

G|---------------------|
D|---------------------|
A|--777-77-7-999-99-9--|
E|---------------------|

  Intro Variation
  "Night is over........."

G|-----------------------------------------------|
D|-----------------------------------------------|
A|--------------------------2222-22-222----------|
E|--4444-44-444-0000-00-000-------------2222-22--|

G|----------|
D|----------|
A|----------|
E|--467646--|

G|-----------------------------------------------|
D|-----------------------------------------------|
A|--------------------------2222-22-222----------|
E|--4444-44-444-0000-00-000-------------2222-22--|

G|----------|
D|----------|
A|----------|
E|--4~--2~--|

  Bridge (Bass Solo) (It's 11 not 1)

G|---------------------------------------------------------------11--11--11--11-11--|
D|----9--9--9--9-9---11--11--11--11-11-----9----9----9----9--9-99--99--99--99--9----| (x4)
A|--77-77-77-77-7--99--99--99--99--9---1111-1111-1111-1111-11-----------------------|
E|----------------------------------------------------------------------------------|

  Verse Variation
  "All I want, it's to be just friends....."

G|-------------------------------------------|
D|-------------------------------------------|
A|--------------------------------2222-------|
E|--002002002-222022202-444444444------2222--|

G|-------------------------------------------|
D|-------------------------------------------|
A|--777777777-999999999-----------2222-------|
E|----------------------444444444------2222--|

G|---------------------|
D|---------------------|
A|--777-77-7-999-99-9--|
E|---------------------|

G|----------------------------|
D|----------------------------|
A|---------------------4---4--|
E|--44444x-----------2---2----|
  
G|--------------------|
D|--------------------|
A|------------22222x--|
E|--44444x-00---------|

  End

G|-----------------------|
D|------------1---2------|
A|----4---4--------------|
E|--2---2---2---2----4~--|






Legend Tab

| /  slide Up
| \  slide Down
| h  Hammer-On
| p  Pull-Off
| ~  vibrato
| x  Mute Note


This Rufio EP is so excellent, in 3 songs they put all motivation, interest and dedication
and this es a producto of this job. This Ep doesn't so hard, only you need to learn notes
and solos, and goes to funny.

RUFIO STILL LIVE
comments
We did not receive enough feedback on this tab! Please rate:
print report bad tab
1 2 3 4 5
I want to post or [tab]
guest
You may want to rate the tab now too:
select rating
Please do not post tabs as comments. Select "correction" instead!