Oops, an error
Loading. Please wait.

Save The World bass

version 2
version 2

Whole song

Interactive

by Rufio
342 views 1 this week
1 commentread comment
1 2 3 4 5
1 last vote to show rating
add to favorites
×
Save as Personal and add changes to this tab that will be seen only by you. Learn more ›
×
You can save this tab as Personal to edit and correct it or add notes. All changes will be seen only by you. Learn more »
launch autoscroll
font size
0
reset
guitar tuner
edit
Autoscroll
slow
fast
+/-
esc
set tempo
stop
Author
+++++++++++++++++++++++++
| Rufio- Save The World |
+++++++++++++++++++++++++

Tuning: EADG

Intro
1.
G|-----------------------------|
D|-2~------------------1h2-----|
A|----2~-4x----4-2x-------1h2--|
E|---------------------------4-|

2.
G|---------------------------------------|
D|---------------------------------------|
A|-44444444-4444-4x-2x-00000000-00000000-|
E|---------------------------------------|

3.
G|-----------------------------------|
D|------------2h4p2----------1h2-----|
A|-44444444-44------00000000----1h2--|
E|---------------------------------4-|

4.
G|-------------------------------------|
D|------------------1x-22222222/6666/9-|
A|-44444444-4444-4x--------------------|
E|-------------------------------------|

5.
G|-----------------------------------------------|
D|-----------------1h2---------------------------|
A|-2-4x-4-0-2--2-4x----0h2--2-4x-4-0-2-----------|
E|-------------------------------------00-0-44-4-|

6.
G|---------------------2h4-----------------------|
D|-----------------1h2---------------------------|
A|-2-4x-4-0-2--2-4x---------2-4x-4-0-2-----------|
E|-------------------------------------00-0-44-4-|

Verse
"You pull me by the arm.."
7.
G|-----------------------------------------------------------------------|
D|-----------------------------------------------------------------------|
A|-00000000-00000000-22222222-22222222-44444444-22222222-00000000-00000--|--x2
E|---------------------------------------------------------------------4-|

"Believe.."
8.
G|-------------------------------------|
D|-------------------------------------|
A|-00000000-00000000-22222222-22222222-|
E|-------------------------------------|

Chorus
"Lets save the world.."
9.
G|-------------------------------------------------------------------------|
D|-22222222-22222222-------------------------------------------------------|
A|-------------------00000000-00000000-44444444-44444444-00000000-22222222-|--x2
E|-------------------------------------------------------------------------|

Outro
10.
G|----------------------------------|
D|-------2------------------1h2-----|
A|----024--4x-4x-4x-4-2x-------1h2--|
E|-024----------------------------4-|

11.
G|--------------------------------------|
D|------------------------------1h2-----|
A|-44444444-4444-4x-2x-00000000----1h2--|
E|------------------------------------4-|

Verse
"So spread the word.."
12.
G|-------------------------------------------------------------------------|
D|----------------------------------------------22222222-------------------|
A|-44444444-00000000----------22222222-44444444----------00000000-22222222-|
E|-------------------44444444----------------------------------------------|

"Well to live.."
13.
G|------------------------------------------------4------------------------|
D|----------------------------------------------22-22222-------------------|
A|-44444444-00000000----------22222222-44444444----------00000000-22222222-|
E|-------------------44444444----------------------------------------------|

"You pull me by the arm.."
14.
G|-----------------------------------------------------------------------|
D|-----------------------------------------------------------------------|
A|-00000000-00000000-22222222-22222222-44444444-22222222-00000000-00000--|--x2
E|---------------------------------------------------------------------4-|

"Believe.."
15.
G|-------------------------------------|
D|-------------------------------------|
A|-00000000-00000000-22222222-22222222-|
E|-------------------------------------|

Chorus
"Lets save the world.."
16.
G|-------------------------------------------------------------------------|
D|-22222222-22222222-------------------------------------------------------|
A|-------------------00000000-00000000-44444444-44444444-00000000-22222222-|--x2
E|-------------------------------------------------------------------------|

Outro
17.
G|-----------|
D|-----------|
A|-0000-2222-|
E|-----------|

18.
G|-----------------------------------------------------|
D|-----------------------------------------------------|
A|-44-444-44-44-22-222-22-22---------------------------|--x2
E|---------------------------00-000-00-00-55-555-55-55-|

19.
G|---------------------------------|
D|---------------------------------|
A|-4-4-4-4-2-2-2-2-----------------|--x2
E|-----------------0-0-0-0-5-5-5-5-|

20.
G|----------------------------------------|
D|----------------------------------------|
A|-4~--4-4~--2~--2-2~---------------------|
E|---------------------0~--0-0~--5~--5-5~-|

Chorus
"Lets save the world.."
21.
G|-------------------------------------------------------------------------|
D|-22222222-22222222-------------------------------------------------------|
A|-------------------00000000-00000000-44444444-44444444-00000000-22222222-|
E|-------------------------------------------------------------------------|

"Dont question the thought.."
22.
G|-------------------------------------------------------------------|
D|-22222222-22222222-------------------------------------------------|
A|-------------------00000000-00000000-44444444-44444444-0~--0-2~--2-|
E|-------------------------------------------------------------------|

Outro
23.
G|--------------------------------------------|
D|-2-2-222-22---------------------------------|
A|------------0-0-000-00-4-4-444-44-0-00-2-22-|--x2
E|--------------------------------------------|

24.
G|----|
D|-2~-|
A|----|
E|----|

Lyrics:

You pull me by the arm
Tell me what to believe
You tell me there is only one way
One way to see
Whatever faith you choose
May not be for me
How can I be saved
While being forced to believe
Believe.

Lets save the world
One by one
Well make them believe
Conform if they must
Dont question the thought
Its whats always been told
Well make them believe
Lets save the world

So spread the word
And tell me of good news
That if I act right
I can be like you
Well to live is to learn
And think for yourself
And ill do just that
I dont need your help 

+++++++++++++++++++++++++++++++++
| RaiLeff                       |
| Underground__Dora@Hotmail.com |
+++++++++++++++++++++++++++++++++

            
            
Suggest correction
Creating personal tab
Creating personal tab
You can edit any tab online and save it as your Personal.

You can edit, replace or remove any tab part or add personal notes – all changes will be seen only by you.

Personal tabs can be accessed anytime from any device, even offline.
Learn more »
Give kudos to tab author, rate the tab!
1 2 3 4 5
comments
print report bad tab
1 comment total.
0 reply
Zerry007 10 May 04, 2007 01:52 PM

intro is perfect!
you rock

guest
You may want to rate the tab now too:
select rating
Wanna post a correction for this tab? Suggest correction