Oops, an error
Loading. Please wait.

Selfishness bass

version 1
version 1

Whole song

Interactive

by Rufio
170 views 1 this week
1 commentread comment
1 2 3 4 5
2 more votes to show rating
add to favorites
×
Save as Personal and add changes to this tab that will be seen only by you. Learn more ›
×
You can save this tab as Personal to edit and correct it or add notes. All changes will be seen only by you. Learn more »
launch autoscroll
font size
0
reset
guitar tuner
edit
Autoscroll
slow
fast
+/-
esc
set tempo
stop
Author
++++++++++++++++++++++
| Rufio- Selfishness |
++++++++++++++++++++++

EADG

Intro.   x3
1.
G|----------------|
D|----------------|
A|-6~--4~------2~-|
E|---------2~-----|

2.
G|----------------|
D|-8~--6~--4~-----|
A|-------------2~-|
E|----------------|

No bass during the crazy guitars..
;D

3.
G|-----------------------------|
D|-----------------------------|
A|-222222-444444-666666-444444-|
E|-----------------------------|

               OR

3.
G|-----------------------------|  I prefer
D|----4------3------4------3---|  this one, but
A|-222-22-444-44-666-66-444-44-|  it's not the
E|-----------------------------|  correct one :O

4.
G|-----------------------------|
D|-----------------------------|
A|-222222-444444-666666-44-4-4-|
E|-----------------------------|

Verse
"Harden up to everyone.."             x2
5.
G|---------------------------------------------------------------------|
D|---------------------------------------------------------------------|
A|-2222222222222222-4444444444444444-----------------------------------|
E|-----------------------------------2222222222222222-1111111111111111-|

Pre-Chorus
"Your selfishness, is wearing thin.."  x4
6.
G|-----------------------------|
D|-----------------------------|
A|-222222-444444-666666-444444-|
E|-----------------------------|

Chorus
"Alone and strong..."
7.
G|---------------------------------|
D|-444444-333333-------------------|
A|---------------2222222-6666-4444-|--|
E|---------------------------------|  |
                                      |
"If anything turns inside.."          |
8.                                    |-- x2
G|-----------------------------|      |
D|-----------------------------|------|
A|-222222-222222-444444-444444-|
E|-----------------------------|

Outro.    x4 <--During verse too
9.
G|-----------------------------|
D|-----------------------------|
A|-222222-444444-666666-444444-|
E|-----------------------------|


"Turning anger to your friends.."       x2
10.
G|---------------------------------------------------------------------|
D|---------------------------------------------------------------------|
A|-2222222222222222-4444444444444444-----------------------------------|
E|-----------------------------------2222222222222222-1111111111111111-|

Pre-Chorus
"Your selfishness.."    x4
11.
G|-----------------------------|
D|-----------------------------|
A|-222222-444444-666666-444444-|
E|-----------------------------|

Chorus
"Alone and strong..."
12.
G|---------------------------------|
D|-444444-333333-------------------|
A|---------------2222222-6666-4444-|--|
E|---------------------------------|  |
                                      |
"If anything turns inside.."                            |
13.                                   |-- x2
G|-----------------------------|      |
D|-----------------------------|------|
A|-222222-222222-444444-444444-|
E|-----------------------------|

Outro  x2
14.
G|----------------------------------------|
D|----------------------------------------|
A|-22x-222x-666x-444x-222x-222x-666x-444x-|
E|----------------------------------------|

15.
G|--------------------------------|
D|--------------------------------|
A|-2~---4-2~---4-2~---4-2~---4-2~-|
E|--------------------------------|

Chorus
"Why don't you.." x3
16.
G|-----------------------------|
D|-----------------------------|
A|-666666-444444--------222222-|
E|---------------222222--------|

17.
G|-----------------------------|
D|-888888-666666-444444--------|
A|----------------------222222-|
E|-----------------------------|

Outro.  *Faster this time..
18.
G|----------------------------------------|
D|----------------------------------------|
A|-22x-222x-666x-444x-222x-222x-666x-444x-|
E|----------------------------------------|

Ok.. :D

+++++++++++++++++++++

Lyrics:

Harden up to everyone.
Emotion's all dead.
Face first in the mudd.
A lost cause, upsidedown.

Your selfishness, is wearing thin.
Alone and strong.
Not giving in to selfishness to anyone.
If anything turns inside out look to the cloudiness in your eyes.

Turning anger to your friends.
Blaming things on them.
Breaking rules and promises.
Blaming faces, unknown.

Harden up to everyone.
Emotion's all dead.
Face first in the mudd.
A lost cause, upsidedown.

Your selfishness, is wearing thin.
Alone and strong.
Not giving in to selfishness to anyone.
If anything turns inside out look to the cloudiness in your eyes.

In your eyes...

Why don't you look beyond those days?
They're gone.
See through the shadows of these days.
One darkened day, turned blue.
These lights shone through.

These lights shone...These lights shone through.

+++++++++++++++++++++++++++++++++

+++++++++++++++++++++++++++++++++
| RaiLeff                       |
| Underground__Dora@hotmail.com |
+++++++++++++++++++++++++++++++++

            
            
Suggest correction
Creating personal tab
Creating personal tab
You can edit any tab online and save it as your Personal.

You can edit, replace or remove any tab part or add personal notes – all changes will be seen only by you.

Personal tabs can be accessed anytime from any device, even offline.
Learn more »
Give kudos to tab author, rate the tab!
1 2 3 4 5
comments
print report bad tab
1 comment total.
0 reply
RaiLeff 12,922 Mar 23, 2007 07:03 PM

Verse
"Harden up to everyone.." x2
G|---------------------------------------------------------------------|
D|---------------------------------------------------------------------|
A|-1111111111111111-2222222222222222-----------------------------------|
E|-----------------------------------2222222222222222-1111111111111111-|

Correction of the verse ;)

guest
You may want to rate the tab now too:
select rating
Wanna post a correction for this tab? Suggest correction