Oops, an error
Loading. Please wait.

She Cries bass

version 1
version 1

Whole song

Interactive

by Rufio
1,176 views 6 this week
4 commentsread comments
1 2 3 4 5
x 5
add to favorites
×
Save as Personal and add changes to this tab that will be seen only by you. Learn more ›
×
You can save this tab as Personal to edit and correct it or add notes. All changes will be seen only by you. Learn more »
launch autoscroll
font size
0
reset
guitar tuner
edit
Autoscroll
slow
fast
+/-
esc
set tempo
stop
  she cries - rufio
-------------------------------------------------------------------------------

Tabbed By : jonas schlechtweg
e-mail: jonasschlechtweg@gmail.com

Tuning:drop d ---> D A D G
 keej this is a real good song by rufio. actualy all their songs rock :d. the notes
are al there somethimes you'll
just have to find the ritme :) but it's not so difficult cause the notes are all there
:) have fun. questions? mail me keej
intro

G|--9-9-9-9-9-9-9-9-9---2-2-2-2-2-2------6-6-6-6-6-6-6-6---2-2-2-2-2-2-2--|
D|--7-7-7-7-7-7-7-7-7---0-0-0-0-0-0---2--4-4-4-4-4-4-4-4---0-0-0-0-0-0-0--|x4
A|------------------------------------------------------------------------|
D|------------------------------------------------------------------------|

verse 
G|--------------------------------------------------------------------|
D|--7-7-7-7-7-7-7-7-7---0-0-0-0-0-0--4-4-4-4-4-4-4-4-4--0-0-0-0-0-0-0-| x 2
A|--------------------------------------------------------------------|
D|--------------------------------------------------------------------|

prechorus

G|--------------------------------------------------------------------|
D|--------------------------------------------------------------------|
A|----------------------------------5-5-5-5-5-5-5-5-5-5-5-5-5-5-5-5---|  x 2
D|-2-2-2-2-2-2-2-2--4-4-4-4-4-4-4-4-----------------------------------|

G|--------------------------------------------------------------------|
D|--------------------------------------------------------------------|
A|---------------------------5-5-5-5-5-----5-5-5-5-5------------------| x 2
D|--2-2-2-2-2---4-4-4-4-4---------------------------------------------|

chorus

G|------------------------------------------------------------------|
D|--7--7--7-7-7----0--0-0--0--0----4--4--4-4-4----2--2-2-2--2--2----|  x 2
A|------------------------------------------------------------------|
D|------------------------------------------------------------------|

verse 

G|---------------------------------------------------------------------|
D|--7-7-7-7-7-7-7-7-7---0-0-0-0-0-0--4-4-4-4-4-4-4-4-4--0-0-0-0-0-0-0--| 
A|---------------------------------------------------------------------|
D|---------------------------------------------------------------------|

prechorus

G|---------------------------------------------------------------------|
D|---------------------------------------------------------------------| x2
A|----------------------------------5-5-5-5-5-5-5-5-5-5-5-5-5-5-5-5----|  
D|-2-2-2-2-2-2-2-2--4-4-4-4-4-4-4-4------------------------------------|

G|-------------------------------------------------------------------|
D|-------------------------------------------------------------------|
A|---------------------------5-5-5-5-5-----5-5-5-5-5-----------------| x 1
D|--2-2-2-2-2---4-4-4-4-4--------------------------------------------|


G|----------------------------------7-7-7-7-7-7-7-7-7-7-7-7-7-7-7-7-|
D|------------------------------------------------------------------|
A|------------------------------------------------------------------| x1
D|-2-2-2-2-2---4-4-4-4-4--------------------------------------------|

chorus 2 . keej the notes are correct but you'll have to
				    find the ritme by yourself. it's almost correct :)

								2nd time end on
G|---9--9-9-~------------------------------------------------|---------|
D|---7--7-7-~---------------------4-4-4-4--2-2-2-2-----------|-------0-|  x2
A|-----------------------------------------------------------|---------|
D|-------------0-0-0--0---0-0-----------------------0-0-0-0--|---------|


bridge

G|---------------------------------------------------------------------|
D|---------------------------------------------------------------------|
A|------------------------------------------------------5-5-5-5-5-5-5-5|  x4
D|--4-4-4-4-4-4-4-4---2-2-2-2-2-2-2-2---7-7-7-7-7-7-7-7----------------|

prechorus

G|------------------------------------------------------------------|
D|------------------------------------------------------------------| x4  the ritme somehtimes variates 
A|----------------------------------5-5-5-5-5-5-5-5-5-5-5-5-5-5-5-5-|  
D|-2-2-2-2-2-2-2-2--4-4-4-4-4-4-4-4---------------------------------|


then chorus 2  x2


outro
G|---------------------------------------------------------------------|
D|---------------------------------------------------------------------|
A|---------------------------------------------------------------------| x 4
D|---4-4-4-4-4-4-4-4--2-2-2-2-2-2-2-2---0-0-0-0-0-0-0-0-0-0-0-0-0-0-0-0|

 play the chorus 2 again only a slitly different ritme but you can figure that out :) 
the notes are al there so :).

end

G|--------------------------------------------------------------------------|
D|--------------------------------------------------------------------------|
A|--------------------------------------------------------------------------|
D|---2-2-2-2-2---4----------------------------------------------------------|


have fun

questions---> jonasschlechtweg@gmail.com

| /  slide up
| \  slide down
| h  hammer-on
| p  pull-off
| ~  vibrato
| +  harmonic
| x  Mute note
===============================================================

            
            
Suggest correction
Creating personal tab
Creating personal tab
You can edit any tab online and save it as your Personal.

You can edit, replace or remove any tab part or add personal notes – all changes will be seen only by you.

Personal tabs can be accessed anytime from any device, even offline.
Learn more »
comments
print report bad tab
4 comments total. Showing first comments.
0 reply
dontlookdownkid 280 Sep 01, 2005 08:00 PM

i play the intro like this:
(very first time is like this)
g-9-9-9-9-9-9-9--9-9-9-9h11r9-9-9--9-9-9-9-9-9-9--9-9-9-9-9-9-9-
d-7-7-7-7-7-7-7--0-0-0--------0-x--x-x-x-x-x-x-x--0-0-0-0-0-0-0-
a-------------------------------7--9-9-9-9-9-9-9----------------
D---------------------------------------------------------------
(then all the rest is like this)
g-9-9-9-9-9-9-9--9-9-9-9-9-9-9--9-9-9-9-9-9-9--9-9-9-9-9-9-9-
d-7-7-7-7-7-7-7--0-0-0-0-0-0-x--x-x-x-x-x-x-x--0-0-0-0-0-0-0-
a----------------------------7--9-9-9-9-9-9-9----------------
D------------------------------------------------------------

0 reply
carbonbassist 167 Sep 01, 2005 08:00 PM

koewl thx :) i tried to figure it out myself but i'm not a very good bass player thx for the correction :) adios

0 reply
dontlookdownkid 280 Sep 02, 2005 08:00 PM

no problem dude, actually...i'm not even a bass player but i've known how to play that song for ever....cuz i know like all of their songs on guitar and i've been playing she cries for a couple of years now

guest
You may want to rate the tab now too:
select rating
Wanna post a correction for this tab? Suggest correction